  0
SECTION
  2
HEADER
  9
$ACADVER
  1
AC1014
  9
$DWGCODEPAGE
  3
ANSI_1252
  9
$INSBASE
 10
0.0
 20
0.0
 30
0.0
  9
$EXTMIN
 10
14312.15308031
 20
5227.4391065
  9
$EXTMAX
 10
14312.99308031
 20
5227.8891065
  9
$LIMMIN
 10
14312.15308031
 20
5227.4391065
  9
$LIMMAX
 10
14312.99308031
 20
5227.8891065
  9
$ORTHOMODE
 70
     0
  9
$REGENMODE
 70
     1
  9
$FILLMODE
 70
     1
  9
$QTEXTMODE
 70
     0
  9
$MIRRTEXT
 70
     1
  9
$DRAGMODE
 70
     2
  9
$LTSCALE
 40
0.001
  9
$OSMODE
 70
     0
  9
$ATTMODE
 70
     1
  9
$TEXTSIZE
 40
3.5
  9
$TRACEWID
 40
1.0
  9
$TEXTSTYLE
  7
STANDARD
  9
$CLAYER
  8
0
  9
$CELTYPE
  6
BYLAYER
  9
$CECOLOR
 62
   256
  9
$DIMSCALE
 40
1.0
  9
$DIMASZ
 40
2.79999995
  9
$DIMEXO
 40
5.0
  9
$DIMDLI
 40
10.0
  9
$DIMRND
 40
0.0
  9
$DIMDLE
 40
2.0
  9
$DIMEXE
 40
2.0
  9
$DIMTP
 40
0.0
  9
$DIMTM
 40
0.0
  9
$DIMTXT
 40
2.0
  9
$DIMCEN
 40
1.5
  9
$DIMTSZ
 40
0.0
  9
$DIMTOL
 70
     0
  9
$DIMLIM
 70
     0
  9
$DIMTIH
 70
     1
  9
$DIMTOH
 70
     0
  9
$DIMSE1
 70
     0
  9
$DIMSE2
 70
     0
  9
$DIMTAD
 70
     1
  9
$DIMZIN
 70
     8
  9
$DIMBLK
  1

  9
$DIMASO
 70
     1
  9
$DIMSHO
 70
     1
  9
$DIMPOST
  1

  9
$DIMAPOST
  1

  9
$DIMALT
 70
     0
  9
$DIMALTD
 70
     2
  9
$DIMALTF
 40
25.4
  9
$DIMLFAC
 40
1.0
  9
$DIMTOFL
 70
     0
  9
$DIMTVP
 40
0.0
  9
$DIMTIX
 70
     0
  9
$DIMSOXD
 70
     0
  9
$DIMSAH
 70
     0
  9
$DIMBLK1
  1

  9
$DIMBLK2
  1

  9
$DIMSTYLE
  2
*UNNAMED
  9
$DIMCLRD
 70
     9
  9
$DIMCLRE
 70
     9
  9
$DIMCLRT
 70
     7
  9
$DIMTFAC
 40
1.0
  9
$DIMGAP
 40
0.09
  9
$DIMUNIT
 70
     2
  9
$LUNITS
 70
     2
  9
$LUPREC
 70
     6
  9
$AXISMODE
 70
     0
  9
$AXISUNIT
 10
0.0
 20
0.0
  9
$SKETCHINC
 40
0.1
  9
$FILLETRAD
 40
0.0
  9
$AUNITS
 70
     0
  9
$AUPREC
 70
     0
  9
$MENU
  1
ACAD
  9
$ELEVATION
 40
0.0
  9
$PELEVATION
 40
0.0
  9
$THICKNESS
 40
0.0
  9
$LIMCHECK
 70
     0
  9
$BLIPMODE
 70
     1
  9
$CHAMFERA
 40
0.0
  9
$CHAMFERB
 40
0.0
  9
$SKPOLY
 70
     1
  9
$TDCREATE
 40
2457457.0000000000
  9
$TDUPDATE
 40
2457457.0000000000
  9
$TDINDWG
 40
0.0
  9
$TDUSRTIMER
 40
0.0
  9
$USRTIMER
 70
     1
  9
$ANGBASE
 50
0.0
  9
$ANGDIR
 70
     0
  9
$PDMODE
 70
     0
  9
$PDSIZE
 40
0.0
  9
$PLINEWID
 40
0.0
  9
$COORDS
 70
     2
  9
$SPLFRAME
 70
     0
  9
$SPLINETYPE
 70
     6
  9
$SPLINESEGS
 70
     8
  9
$ATTDIA
 70
     1
  9
$ATTREQ
 70
     1
  9
$HANDLING
 70
     1
  9
$HANDSEED
  5
     25D
  9
$SURFTAB1
 70
     6
  9
$SURFTAB2
 70
     6
  9
$SURFTYPE
 70
     6
  9
$SURFU
 70
     6
  9
$SURFV
 70
     6
  9
$UCSNAME
  2

  9
$UCSORG
 10
0.0
 20
0.0
 30
0.0
  9
$UCSXDIR
 10
1.0
 20
0.0
 30
0.0
  9
$UCSYDIR
 10
0.0
 20
1.0
 30
0.0
  9
$PUCSNAME
  2

  9
$PUCSORG
 10
0.0
 20
0.0
 30
0.0
  9
$PUCSXDIR
 10
1.0
 20
0.0
 30
0.0
  9
$PUCSYDIR
 10
0.0
 20
1.0
 30
0.0
  9
$USERI1
 70
     0
  9
$USERI2
 70
     0
  9
$USERI3
 70
     0
  9
$USERI4
 70
     0
  9
$USERI5
 70
     0
  9
$USERR1
 40
0.0
  9
$USERR2
 40
0.0
  9
$USERR3
 40
0.0
  9
$USERR4
 40
0.0
  9
$USERR5
 40
0.0
  9
$WORLDVIEW
 70
     1
  9
$SHADEDGE
 70
     3
  9
$SHADEDIF
 70
    70
  9
$TILEMODE
 70
     1
  9
$MAXACTVP
 70
    16
  9
$PINSBASE
 10
0.0
 20
0.0
 30
0.0
  9
$PLIMCHECK
 70
     0
  9
$PEXTMIN
 10
1.0000000000000E+20
 20
1.0000000000000E+20
 30
1.0000000000000E+20
  9
$PEXTMAX
 10
-1.0000000000000E+20
 20
-1.0000000000000E+20
 30
-1.0000000000000E+20
  9
$PLIMMIN
 10
0.0
 20
0.0
  9
$UNITMODE
 70
     0
  9
$VISRETAIN
 70
     0
  9
$MEASUREMENT
 70
     1
  0
ENDSEC
  0
SECTION
  2
TABLES
  0
TABLE
  2
VPORT
  5
E
100
AcDbSymbolTable
 70
     1
  0
ENDTAB
  0
TABLE
  2
STYLE
  5
F
100
AcDbSymbolTable
 70
     3
  0
STYLE
  5
10
100
AcDbSymbolTableRecord
100
AcDbTextStyleTableRecord
  2
STANDARD
 70
     0
 40
0.0
 41
1.0
 50
0.0
 71
     0
 42
3.5
  3
MONOTXT
  4

  0
STYLE
  5
11
100
AcDbSymbolTableRecord
100
AcDbTextStyleTableRecord
  2
CADWORK1
 70
     0
 40
0.0
 41
1.0
 50
0.0
 71
     0
 42
3.5
  3
MONOTXT
  4

  0
STYLE
  5
12
100
AcDbSymbolTableRecord
100
AcDbTextStyleTableRecord
  2
MONOTXT
 70
     0
 40
0.0
 41
1.0
 50
0.0
 71
     0
 42
3.5
  3
MONOTXT
  4

  0
STYLE
  5
13
100
AcDbSymbolTableRecord
100
AcDbTextStyleTableRecord
  2
ARIAL
 70
     0
 40
0.0
 41
1.0
 50
0.0
 71
     0
 42
3.5
  3

  4

1001
ACAD
1000
Arial
1071
        0
  0
ENDTAB
  0
TABLE
  2
LTYPE
  5
14
100
AcDbSymbolTable
 70
    12
  0
LTYPE
  5
15
100
AcDbSymbolTableRecord
100
AcDbLinetypeTableRecord
  2
BYBLOCK
 70
    64
  3

 72
    65
 73
     0
 40
0.0
  0
LTYPE
  5
16
100
AcDbSymbolTableRecord
100
AcDbLinetypeTableRecord
  2
BYLAYER
 70
    64
  3

 72
    65
 73
     0
 40
0.0
  0
LTYPE
  5
17
100
AcDbSymbolTableRecord
100
AcDbLinetypeTableRecord
  2
CONTINUOUS
 70
    64
  3
Solid line
 72
    65
 73
     0
 40
0.0
  0
LTYPE
  5
18
100
AcDbSymbolTableRecord
100
AcDbLinetypeTableRecord
  2
DOT
 70
    64
  3
. . . . . . . . . . . . . . . . . . . . . . . .
 72
    65
 73
     2
 40
2.5
 49
0.0
 74
     0
 49
-2.5
 74
     0
  0
LTYPE
  5
19
100
AcDbSymbolTableRecord
100
AcDbLinetypeTableRecord
  2
HIDDEN
 70
    64
  3
__ __ __ __ __ __ __ __ __ __ __ __ __ __ __ __
 72
    65
 73
     2
 40
1.875
 49
1.25
 74
     0
 49
-0.625
 74
     0
  0
LTYPE
  5
1A
100
AcDbSymbolTableRecord
100
AcDbLinetypeTableRecord
  2
DASHDOT
 70
    64
  3
 __ . __ . __ . __ . __ . __ . __ . __ . __ . __
 72
    65
 73
     4
 40
10.0
 49
5.0
 74
     0
 49
-2.5
 74
     0
 49
0.0
 74
     0
 49
-2.5
 74
     0
  0
LTYPE
  5
1B
100
AcDbSymbolTableRecord
100
AcDbLinetypeTableRecord
  2
DAL
 70
    64
  3
Solid line (for MAPS)
 72
    65
 73
     0
 40
0.0
  0
LTYPE
  5
1C
100
AcDbSymbolTableRecord
100
AcDbLinetypeTableRecord
  2
MUR
 70
    64
  3
Solid line (for MAPS)
 72
    65
 73
     0
 40
0.0
  0
LTYPE
  5
1D
100
AcDbSymbolTableRecord
100
AcDbLinetypeTableRecord
  2
SOM
 70
    64
  3
Solid line (for MAPS)
 72
    65
 73
     0
 40
0.0
  0
LTYPE
  5
1E
100
AcDbSymbolTableRecord
100
AcDbLinetypeTableRecord
  2
COL
 70
    64
  3
Solid line (for MAPS)
 72
    65
 73
     0
 40
0.0
  0
LTYPE
  5
1F
100
AcDbSymbolTableRecord
100
AcDbLinetypeTableRecord
  2
LGN
 70
    64
  3
Solid line (for MAPS)
 72
    65
 73
     0
 40
0.0
  0
LTYPE
  5
20
100
AcDbSymbolTableRecord
100
AcDbLinetypeTableRecord
  2
PNT
 70
    64
  3
Solid line (for MAPS)
 72
    65
 73
     0
 40
0.0
  0
ENDTAB
  0
TABLE
  2
LAYER
  5
21
100
AcDbSymbolTable
 70
     2
  0
LAYER
  5
22
100
AcDbSymbolTableRecord
100
AcDbLayerTableRecord
  2
0
 70
     0
 62
     1
  6
CONTINUOUS
370
    -3
  0
LAYER
  5
23
100
AcDbSymbolTableRecord
100
AcDbLayerTableRecord
  2
LAYER_1
 70
     0
 62
     7
  6
CONTINUOUS
370
    -3
  0
LAYER
  5
24
100
AcDbSymbolTableRecord
100
AcDbLayerTableRecord
  2
Titelblatt
 70
     0
 62
     7
  6
CONTINUOUS
370
    -3
  0
ENDTAB
  0
TABLE
  2
VIEW
  5
25
100
AcDbSymbolTable
 70
     0
  0
ENDTAB
  0
TABLE
  2
UCS
  5
26
100
AcDbSymbolTable
 70
     0
  0
ENDTAB
  0
TABLE
  2
APPID
  5
27
100
AcDbSymbolTable
 70
     1
  0
APPID
  5
28
100
AcDbSymbolTableRecord
100
AcDbRegAppTableRecord
  2
ACAD
 70
     0
  0
ENDTAB
  0
TABLE
  2
DIMSTYLE
  5
29
100
AcDbSymbolTable
 70
     0
  0
ENDTAB
  0
TABLE
  2
BLOCK_RECORD
  5
2A
100
AcDbSymbolTable
 70
     0
  0
BLOCK_RECORD
  5
2B
100
AcDbSymbolTableRecord
100
AcDbBlockTableRecord
  2
*MODEL_SPACE
  0
BLOCK_RECORD
  5
2C
100
AcDbSymbolTableRecord
100
AcDbBlockTableRecord
  2
*PAPER_SPACE
  0
BLOCK_RECORD
  5
2D
100
AcDbSymbolTableRecord
100
AcDbBlockTableRecord
  2
CDWK_EXTR_0
  0
BLOCK_RECORD
  5
2E
100
AcDbSymbolTableRecord
100
AcDbBlockTableRecord
  2
CDWK_EXTR_1D
  0
BLOCK_RECORD
  5
2F
100
AcDbSymbolTableRecord
100
AcDbBlockTableRecord
  2
CDWK_EXTR_1G
  0
BLOCK_RECORD
  5
30
100
AcDbSymbolTableRecord
100
AcDbBlockTableRecord
  2
CDWK_EXTR_2
  0
BLOCK_RECORD
  5
31
100
AcDbSymbolTableRecord
100
AcDbBlockTableRecord
  2
CDWK_EXTR_3
  0
BLOCK_RECORD
  5
32
100
AcDbSymbolTableRecord
100
AcDbBlockTableRecord
  2
CDWK_EXTR_4
  0
BLOCK_RECORD
  5
33
100
AcDbSymbolTableRecord
100
AcDbBlockTableRecord
  2
CDWK_PTTYP0
  0
BLOCK_RECORD
  5
34
100
AcDbSymbolTableRecord
100
AcDbBlockTableRecord
  2
CDWK_PTTYP1
  0
BLOCK_RECORD
  5
35
100
AcDbSymbolTableRecord
100
AcDbBlockTableRecord
  2
CDWK_PTTYP2
  0
BLOCK_RECORD
  5
36
100
AcDbSymbolTableRecord
100
AcDbBlockTableRecord
  2
CDWK_PTTYP3
  0
BLOCK_RECORD
  5
37
100
AcDbSymbolTableRecord
100
AcDbBlockTableRecord
  2
CDWK_PTTYP4
  0
BLOCK_RECORD
  5
38
100
AcDbSymbolTableRecord
100
AcDbBlockTableRecord
  2
CDWK_PTTYP5
  0
BLOCK_RECORD
  5
39
100
AcDbSymbolTableRecord
100
AcDbBlockTableRecord
  2
CDWK_PTTYP6
  0
BLOCK_RECORD
  5
3A
100
AcDbSymbolTableRecord
100
AcDbBlockTableRecord
  2
CDWK_PTTYP7
  0
BLOCK_RECORD
  5
3B
100
AcDbSymbolTableRecord
100
AcDbBlockTableRecord
  2
CDWK_PTTYP8
  0
BLOCK_RECORD
  5
3C
100
AcDbSymbolTableRecord
100
AcDbBlockTableRecord
  2
CDWK_PTTYP9
  0
BLOCK_RECORD
  5
3D
100
AcDbSymbolTableRecord
100
AcDbBlockTableRecord
  2
CDWK_PTTYP10
  0
BLOCK_RECORD
  5
3E
100
AcDbSymbolTableRecord
100
AcDbBlockTableRecord
  2
CDWK_PTTYP11
  0
BLOCK_RECORD
  5
3F
100
AcDbSymbolTableRecord
100
AcDbBlockTableRecord
  2
CDWK_PTTYP12
  0
BLOCK_RECORD
  5
40
100
AcDbSymbolTableRecord
100
AcDbBlockTableRecord
  2
CDWK_PTTYP13
  0
BLOCK_RECORD
  5
41
100
AcDbSymbolTableRecord
100
AcDbBlockTableRecord
  2
CDWK_PTTYP14
  0
BLOCK_RECORD
  5
42
100
AcDbSymbolTableRecord
100
AcDbBlockTableRecord
  2
CDWK_PTTYP15
  0
BLOCK_RECORD
  5
43
100
AcDbSymbolTableRecord
100
AcDbBlockTableRecord
  2
CDWK_PTTYP16
  0
BLOCK_RECORD
  5
44
100
AcDbSymbolTableRecord
100
AcDbBlockTableRecord
  2
CDWK_PTTYP17
  0
BLOCK_RECORD
  5
45
100
AcDbSymbolTableRecord
100
AcDbBlockTableRecord
  2
CDWK_PTTYP18
  0
BLOCK_RECORD
  5
46
100
AcDbSymbolTableRecord
100
AcDbBlockTableRecord
  2
CDWK_PTTYP19
  0
BLOCK_RECORD
  5
47
100
AcDbSymbolTableRecord
100
AcDbBlockTableRecord
  2
CDWK_PTTYP20
  0
BLOCK_RECORD
  5
48
100
AcDbSymbolTableRecord
100
AcDbBlockTableRecord
  2
CDWK_PTTYP21
  0
BLOCK_RECORD
  5
49
100
AcDbSymbolTableRecord
100
AcDbBlockTableRecord
  2
CDWK_PTTYP22
  0
BLOCK_RECORD
  5
4A
100
AcDbSymbolTableRecord
100
AcDbBlockTableRecord
  2
CDWK_PTTYP23
  0
BLOCK_RECORD
  5
4B
100
AcDbSymbolTableRecord
100
AcDbBlockTableRecord
  2
CDWK_PTTYP24
  0
BLOCK_RECORD
  5
4C
100
AcDbSymbolTableRecord
100
AcDbBlockTableRecord
  2
CDWK_PTTYP25
  0
BLOCK_RECORD
  5
4D
100
AcDbSymbolTableRecord
100
AcDbBlockTableRecord
  2
CDWK_PTTYP26
  0
BLOCK_RECORD
  5
4E
100
AcDbSymbolTableRecord
100
AcDbBlockTableRecord
  2
CDWK_PTTYP27
  0
BLOCK_RECORD
  5
4F
100
AcDbSymbolTableRecord
100
AcDbBlockTableRecord
  2
CDWK_PTTYP28
  0
BLOCK_RECORD
  5
50
100
AcDbSymbolTableRecord
100
AcDbBlockTableRecord
  2
CDWK_PTTYP29
  0
BLOCK_RECORD
  5
51
100
AcDbSymbolTableRecord
100
AcDbBlockTableRecord
  2
CDWK_PTTYP30
  0
BLOCK_RECORD
  5
52
100
AcDbSymbolTableRecord
100
AcDbBlockTableRecord
  2
CDWK_PTTYP31
  0
BLOCK_RECORD
  5
53
100
AcDbSymbolTableRecord
100
AcDbBlockTableRecord
  2
CDWK_PTTYP32
  0
BLOCK_RECORD
  5
54
100
AcDbSymbolTableRecord
100
AcDbBlockTableRecord
  2
CDWK_PTTYP33
  0
BLOCK_RECORD
  5
55
100
AcDbSymbolTableRecord
100
AcDbBlockTableRecord
  2
CDWK_PTTYP34
  0
BLOCK_RECORD
  5
56
100
AcDbSymbolTableRecord
100
AcDbBlockTableRecord
  2
CDWK_PTTYP35
  0
BLOCK_RECORD
  5
57
100
AcDbSymbolTableRecord
100
AcDbBlockTableRecord
  2
CDWK_PTTYP36
  0
BLOCK_RECORD
  5
58
100
AcDbSymbolTableRecord
100
AcDbBlockTableRecord
  2
CDWK_PTTYP37
  0
BLOCK_RECORD
  5
59
100
AcDbSymbolTableRecord
100
AcDbBlockTableRecord
  2
CDWK_PTTYP38
  0
BLOCK_RECORD
  5
5A
100
AcDbSymbolTableRecord
100
AcDbBlockTableRecord
  2
*D1
  0
BLOCK_RECORD
  5
5B
100
AcDbSymbolTableRecord
100
AcDbBlockTableRecord
  2
*D2
  0
BLOCK_RECORD
  5
5C
100
AcDbSymbolTableRecord
100
AcDbBlockTableRecord
  2
*D3
  0
BLOCK_RECORD
  5
5D
100
AcDbSymbolTableRecord
100
AcDbBlockTableRecord
  2
*D4
  0
BLOCK_RECORD
  5
5E
100
AcDbSymbolTableRecord
100
AcDbBlockTableRecord
  2
*D5
  0
BLOCK_RECORD
  5
5F
100
AcDbSymbolTableRecord
100
AcDbBlockTableRecord
  2
*D6
  0
BLOCK_RECORD
  5
60
100
AcDbSymbolTableRecord
100
AcDbBlockTableRecord
  2
*D7
  0
BLOCK_RECORD
  5
61
100
AcDbSymbolTableRecord
100
AcDbBlockTableRecord
  2
*D8
  0
BLOCK_RECORD
  5
62
100
AcDbSymbolTableRecord
100
AcDbBlockTableRecord
  2
*D9
  0
BLOCK_RECORD
  5
63
100
AcDbSymbolTableRecord
100
AcDbBlockTableRecord
  2
*D10
  0
BLOCK_RECORD
  5
64
100
AcDbSymbolTableRecord
100
AcDbBlockTableRecord
  2
*D11
  0
BLOCK_RECORD
  5
65
100
AcDbSymbolTableRecord
100
AcDbBlockTableRecord
  2
*D12
  0
BLOCK_RECORD
  5
66
100
AcDbSymbolTableRecord
100
AcDbBlockTableRecord
  2
*D13
  0
BLOCK_RECORD
  5
67
100
AcDbSymbolTableRecord
100
AcDbBlockTableRecord
  2
*D14
  0
BLOCK_RECORD
  5
68
100
AcDbSymbolTableRecord
100
AcDbBlockTableRecord
  2
*D15
  0
BLOCK_RECORD
  5
69
100
AcDbSymbolTableRecord
100
AcDbBlockTableRecord
  2
*D16
  0
BLOCK_RECORD
  5
6A
100
AcDbSymbolTableRecord
100
AcDbBlockTableRecord
  2
*D17
  0
BLOCK_RECORD
  5
6B
100
AcDbSymbolTableRecord
100
AcDbBlockTableRecord
  2
*D18
  0
BLOCK_RECORD
  5
6C
100
AcDbSymbolTableRecord
100
AcDbBlockTableRecord
  2
*D19
  0
BLOCK_RECORD
  5
6D
100
AcDbSymbolTableRecord
100
AcDbBlockTableRecord
  2
*D20
  0
BLOCK_RECORD
  5
6E
100
AcDbSymbolTableRecord
100
AcDbBlockTableRecord
  2
*D21
  0
BLOCK_RECORD
  5
6F
100
AcDbSymbolTableRecord
100
AcDbBlockTableRecord
  2
*D22
  0
BLOCK_RECORD
  5
70
100
AcDbSymbolTableRecord
100
AcDbBlockTableRecord
  2
BAV203
  0
ENDTAB
  0
ENDSEC
  0
SECTION
  2
BLOCKS
  0
BLOCK
  5
71
100
AcDbEntity
  8
0
100
AcDbBlockBegin
  2
*MODEL_SPACE
 70
     0
 10
0.0
 20
0.0
 30
0.0
  3
*MODEL_SPACE
  1

  0
ENDBLK
  5
72
100
AcDbEntity
100
AcDbBlockEnd
  0
BLOCK
  5
73
100
AcDbEntity
  8
0
100
AcDbBlockBegin
  2
*PAPER_SPACE
 70
     0
 10
0.0
 20
0.0
 30
0.0
  3
*PAPER_SPACE
  1

  0
ENDBLK
  5
74
100
AcDbEntity
100
AcDbBlockEnd
  0
BLOCK
  5
75
100
AcDbEntity
  8
0
100
AcDbBlockBegin
  2
CDWK_EXTR_0
 70
     0
 10
0.0
 20
0.0
 30
0.0
  3
CDWK_EXTR_0
  1

  4
Cadwork line-extremity
  0
LINE
  5
76
100
AcDbEntity
  8
0
 62
     0
370
    -2
100
AcDbLine
 10
0.0
 20
0.0
 30
0.0
 11
2.0
 21
0.5
 31
0.0
  0
LINE
  5
77
100
AcDbEntity
  8
0
 62
     0
370
    -2
100
AcDbLine
 10
0.0
 20
0.0
 30
0.0
 11
2.0
 21
-0.5
 31
0.0
  0
LINE
  5
78
100
AcDbEntity
  8
0
 62
     0
370
    -2
100
AcDbLine
 10
2.0
 20
0.5
 30
0.0
 11
2.0
 21
-0.5
 31
0.0
  0
ENDBLK
  5
79
100
AcDbEntity
100
AcDbBlockEnd
  0
BLOCK
  5
7A
100
AcDbEntity
  8
0
100
AcDbBlockBegin
  2
CDWK_EXTR_1D
 70
     0
 10
0.0
 20
0.0
 30
0.0
  3
CDWK_EXTR_1D
  1

  4
Cadwork line-extremity
  0
LINE
  5
7B
100
AcDbEntity
  8
0
 62
     0
370
    -2
100
AcDbLine
 10
0.0
 20
0.0
 30
0.0
 11
0.0
 21
1.0
 31
0.0
  0
LINE
  5
7C
100
AcDbEntity
  8
0
 62
     0
370
    -2
100
AcDbLine
 10
0.0
 20
1.0
 30
0.0
 11
0.5
 21
1.5
 31
0.0
  0
LINE
  5
7D
100
AcDbEntity
  8
0
 62
     0
370
    -2
100
AcDbLine
 10
0.5
 20
1.5
 30
0.0
 11
1.5
 21
1.5
 31
0.0
  0
ENDBLK
  5
7E
100
AcDbEntity
100
AcDbBlockEnd
  0
BLOCK
  5
7F
100
AcDbEntity
  8
0
100
AcDbBlockBegin
  2
CDWK_EXTR_1G
 70
     0
 10
0.0
 20
0.0
 30
0.0
  3
CDWK_EXTR_1G
  1

  4
Cadwork line-extremity
  0
LINE
  5
80
100
AcDbEntity
  8
0
 62
     0
370
    -2
100
AcDbLine
 10
0.0
 20
0.0
 30
0.0
 11
0.0
 21
-1.0
 31
0.0
  0
LINE
  5
81
100
AcDbEntity
  8
0
 62
     0
370
    -2
100
AcDbLine
 10
0.0
 20
-1.0
 30
0.0
 11
0.5
 21
-1.5
 31
0.0
  0
LINE
  5
82
100
AcDbEntity
  8
0
 62
     0
370
    -2
100
AcDbLine
 10
0.5
 20
-1.5
 30
0.0
 11
1.5
 21
-1.5
 31
0.0
  0
ENDBLK
  5
83
100
AcDbEntity
100
AcDbBlockEnd
  0
BLOCK
  5
84
100
AcDbEntity
  8
0
100
AcDbBlockBegin
  2
CDWK_EXTR_2
 70
     0
 10
0.0
 20
0.0
 30
0.0
  3
CDWK_EXTR_2
  1

  4
Cadwork line-extremity
  0
SOLID
  5
85
100
AcDbEntity
  8
0
 62
     0
100
AcDbTrace
 10
0.0
 20
0.0
 11
2.0
 21
0.5
 12
2.0
 22
-0.5
 13
2.0
 23
-0.5
  0
ENDBLK
  5
86
100
AcDbEntity
100
AcDbBlockEnd
  0
BLOCK
  5
87
100
AcDbEntity
  8
0
100
AcDbBlockBegin
  2
CDWK_EXTR_3
 70
     0
 10
0.0
 20
0.0
 30
0.0
  3
CDWK_EXTR_3
  1

  4
Cadwork line-extremity
  0
SOLID
  5
88
100
AcDbEntity
  8
0
 62
     0
100
AcDbTrace
 10
0.0
 20
0.0
 11
2.0
 21
0.5
 12
2.0
 22
-0.5
 13
2.0
 23
-0.5
  0
LINE
  5
89
100
AcDbEntity
  8
0
 62
     0
370
    -2
100
AcDbLine
 10
0.0
 20
1.0
 30
0.0
 11
0.0
 21
-1.0
 31
0.0
  0
ENDBLK
  5
8A
100
AcDbEntity
100
AcDbBlockEnd
  0
BLOCK
  5
8B
100
AcDbEntity
  8
0
100
AcDbBlockBegin
  2
CDWK_EXTR_4
 70
     0
 10
0.0
 20
0.0
 30
0.0
  3
CDWK_EXTR_4
  1

  4
Cadwork line-extremity
  0
HATCH
  5
8C
100
AcDbEntity
  8
0
 62
     0
370
    -2
100
AcDbHatch
 10
0.0
 20
0.0
 30
0.0
210
0.0
220
0.0
230
1.0
  2
SOLID
 70
     1
 71
     0
 91
        1
 92
        1
 93
        1
 72
     2
 10
0.0
 20
0.0
 40
0.5
 50
0.0
 51
360.0
 73
     1
 97
        0
 75
     0
 76
     1
 98
        1
 10
0.0
 20
0.0
  0
ENDBLK
  5
8D
100
AcDbEntity
100
AcDbBlockEnd
  0
BLOCK
  5
8E
100
AcDbEntity
  8
0
100
AcDbBlockBegin
  2
CDWK_PTTYP0
 70
     0
 10
0.0
 20
0.0
 30
0.0
  3
CDWK_PTTYP0
  1

  4
Cadwork point
  0
POINT
  5
8F
100
AcDbEntity
  8
0
 62
     0
100
AcDbPoint
 10
0.0
 20
0.0
 30
0.0
  0
ENDBLK
  5
90
100
AcDbEntity
100
AcDbBlockEnd
  0
BLOCK
  5
91
100
AcDbEntity
  8
0
100
AcDbBlockBegin
  2
CDWK_PTTYP1
 70
     0
 10
0.0
 20
0.0
 30
0.0
  3
CDWK_PTTYP1
  1

  4
Cadwork node
  0
LINE
  5
92
100
AcDbEntity
  8
0
 62
     0
370
    -2
100
AcDbLine
 10
-0.5
 20
0.5
 30
0.0
 11
0.5
 21
0.5
 31
0.0
  0
LINE
  5
93
100
AcDbEntity
  8
0
 62
     0
370
    -2
100
AcDbLine
 10
0.5
 20
0.5
 30
0.0
 11
0.5
 21
-0.5
 31
0.0
  0
LINE
  5
94
100
AcDbEntity
  8
0
 62
     0
370
    -2
100
AcDbLine
 10
0.5
 20
-0.5
 30
0.0
 11
-0.5
 21
-0.5
 31
0.0
  0
LINE
  5
95
100
AcDbEntity
  8
0
 62
     0
370
    -2
100
AcDbLine
 10
-0.5
 20
-0.5
 30
0.0
 11
-0.5
 21
0.5
 31
0.0
  0
ENDBLK
  5
96
100
AcDbEntity
100
AcDbBlockEnd
  0
BLOCK
  5
97
100
AcDbEntity
  8
0
100
AcDbBlockBegin
  2
CDWK_PTTYP2
 70
     0
 10
0.0
 20
0.0
 30
0.0
  3
CDWK_PTTYP2
  1

  4
Cadwork node
  0
LINE
  5
98
100
AcDbEntity
  8
0
 62
     0
370
    -2
100
AcDbLine
 10
0.0
 20
0.5
 30
0.0
 11
0.0
 21
-0.5
 31
0.0
  0
LINE
  5
99
100
AcDbEntity
  8
0
 62
     0
370
    -2
100
AcDbLine
 10
-0.5
 20
0.0
 30
0.0
 11
0.5
 21
0.0
 31
0.0
  0
ENDBLK
  5
9A
100
AcDbEntity
100
AcDbBlockEnd
  0
BLOCK
  5
9B
100
AcDbEntity
  8
0
100
AcDbBlockBegin
  2
CDWK_PTTYP3
 70
     0
 10
0.0
 20
0.0
 30
0.0
  3
CDWK_PTTYP3
  1

  4
Cadwork node
  0
CIRCLE
  5
9C
100
AcDbEntity
  8
0
 62
     0
370
    -2
100
AcDbCircle
 10
0.0
 20
0.0
 30
0.0
 40
0.5
  0
ENDBLK
  5
9D
100
AcDbEntity
100
AcDbBlockEnd
  0
BLOCK
  5
9E
100
AcDbEntity
  8
0
100
AcDbBlockBegin
  2
CDWK_PTTYP4
 70
     0
 10
0.0
 20
0.0
 30
0.0
  3
CDWK_PTTYP4
  1

  4
Cadwork node
  0
HATCH
  5
9F
100
AcDbEntity
  8
0
 62
     0
370
    -2
100
AcDbHatch
 10
0.0
 20
0.0
 30
0.0
210
0.0
220
0.0
230
1.0
  2
SOLID
 70
     1
 71
     0
 91
        1
 92
        1
 93
        1
 72
     2
 10
0.0
 20
0.0
 40
0.5
 50
0.0
 51
360.0
 73
     1
 97
        0
 75
     0
 76
     1
 98
        1
 10
0.0
 20
0.0
  0
ENDBLK
  5
A0
100
AcDbEntity
100
AcDbBlockEnd
  0
BLOCK
  5
A1
100
AcDbEntity
  8
0
100
AcDbBlockBegin
  2
CDWK_PTTYP5
 70
     0
 10
0.0
 20
0.0
 30
0.0
  3
CDWK_PTTYP5
  1

  4
Cadwork node
  0
LINE
  5
A2
100
AcDbEntity
  8
0
 62
     0
370
    -2
100
AcDbLine
 10
-0.5
 20
0.5
 30
0.0
 11
0.5
 21
0.5
 31
0.0
  0
LINE
  5
A3
100
AcDbEntity
  8
0
 62
     0
370
    -2
100
AcDbLine
 10
0.5
 20
0.5
 30
0.0
 11
0.5
 21
-0.5
 31
0.0
  0
LINE
  5
A4
100
AcDbEntity
  8
0
 62
     0
370
    -2
100
AcDbLine
 10
0.5
 20
-0.5
 30
0.0
 11
-0.5
 21
-0.5
 31
0.0
  0
LINE
  5
A5
100
AcDbEntity
  8
0
 62
     0
370
    -2
100
AcDbLine
 10
-0.5
 20
-0.5
 30
0.0
 11
-0.5
 21
0.5
 31
0.0
  0
SOLID
  5
A6
100
AcDbEntity
  8
0
 62
     0
100
AcDbTrace
 10
-0.5
 20
-0.5
 11
-0.5
 21
0.0
 12
0.0
 22
-0.5
 13
0.0
 23
0.0
  0
SOLID
  5
A7
100
AcDbEntity
  8
0
 62
     0
100
AcDbTrace
 10
0.0
 20
0.0
 11
0.0
 21
0.5
 12
0.5
 22
0.0
 13
0.5
 23
0.5
  0
ENDBLK
  5
A8
100
AcDbEntity
100
AcDbBlockEnd
  0
BLOCK
  5
A9
100
AcDbEntity
  8
0
100
AcDbBlockBegin
  2
CDWK_PTTYP6
 70
     0
 10
0.0
 20
0.0
 30
0.0
  3
CDWK_PTTYP6
  1

  4
Cadwork node
  0
LINE
  5
AA
100
AcDbEntity
  8
0
 62
     0
370
    -2
100
AcDbLine
 10
-0.5
 20
0.5
 30
0.0
 11
0.5
 21
0.5
 31
0.0
  0
LINE
  5
AB
100
AcDbEntity
  8
0
 62
     0
370
    -2
100
AcDbLine
 10
0.5
 20
0.5
 30
0.0
 11
0.5
 21
-0.5
 31
0.0
  0
LINE
  5
AC
100
AcDbEntity
  8
0
 62
     0
370
    -2
100
AcDbLine
 10
0.5
 20
-0.5
 30
0.0
 11
-0.5
 21
-0.5
 31
0.0
  0
LINE
  5
AD
100
AcDbEntity
  8
0
 62
     0
370
    -2
100
AcDbLine
 10
-0.5
 20
-0.5
 30
0.0
 11
-0.5
 21
0.5
 31
0.0
  0
SOLID
  5
AE
100
AcDbEntity
  8
0
 62
     0
100
AcDbTrace
 10
-0.5
 20
-0.5
 11
-0.5
 21
0.5
 12
0.5
 22
0.5
 13
0.5
 23
0.5
  0
ENDBLK
  5
AF
100
AcDbEntity
100
AcDbBlockEnd
  0
BLOCK
  5
B0
100
AcDbEntity
  8
0
100
AcDbBlockBegin
  2
CDWK_PTTYP7
 70
     0
 10
0.0
 20
0.0
 30
0.0
  3
CDWK_PTTYP7
  1

  4
Cadwork node
  0
LINE
  5
B1
100
AcDbEntity
  8
0
 62
     0
370
    -2
100
AcDbLine
 10
-0.5
 20
0.5
 30
0.0
 11
0.5
 21
0.5
 31
0.0
  0
LINE
  5
B2
100
AcDbEntity
  8
0
 62
     0
370
    -2
100
AcDbLine
 10
0.5
 20
0.5
 30
0.0
 11
0.5
 21
-0.5
 31
0.0
  0
LINE
  5
B3
100
AcDbEntity
  8
0
 62
     0
370
    -2
100
AcDbLine
 10
0.5
 20
-0.5
 30
0.0
 11
-0.5
 21
-0.5
 31
0.0
  0
LINE
  5
B4
100
AcDbEntity
  8
0
 62
     0
370
    -2
100
AcDbLine
 10
-0.5
 20
-0.5
 30
0.0
 11
-0.5
 21
0.5
 31
0.0
  0
LINE
  5
B5
100
AcDbEntity
  8
0
 62
     0
370
    -2
100
AcDbLine
 10
0.0
 20
0.5
 30
0.0
 11
0.0
 21
-0.5
 31
0.0
  0
LINE
  5
B6
100
AcDbEntity
  8
0
 62
     0
370
    -2
100
AcDbLine
 10
-0.5
 20
0.0
 30
0.0
 11
0.5
 21
0.0
 31
0.0
  0
ENDBLK
  5
B7
100
AcDbEntity
100
AcDbBlockEnd
  0
BLOCK
  5
B8
100
AcDbEntity
  8
0
100
AcDbBlockBegin
  2
CDWK_PTTYP8
 70
     0
 10
0.0
 20
0.0
 30
0.0
  3
CDWK_PTTYP8
  1

  4
Cadwork node
  0
SOLID
  5
B9
100
AcDbEntity
  8
0
 62
     0
100
AcDbTrace
 10
-0.5
 20
0.5
 11
0.5
 21
0.5
 12
-0.5
 22
-0.5
 13
0.5
 23
-0.5
  0
ENDBLK
  5
BA
100
AcDbEntity
100
AcDbBlockEnd
  0
BLOCK
  5
BB
100
AcDbEntity
  8
0
100
AcDbBlockBegin
  2
CDWK_PTTYP9
 70
     0
 10
0.0
 20
0.0
 30
0.0
  3
CDWK_PTTYP9
  1

  4
Cadwork node
  0
CIRCLE
  5
BC
100
AcDbEntity
  8
0
 62
     0
370
    -2
100
AcDbCircle
 10
0.0
 20
0.0
 30
0.0
 40
0.5
  0
CIRCLE
  5
BD
100
AcDbEntity
  8
0
 62
     0
370
    -2
100
AcDbCircle
 10
0.0
 20
0.0
 30
0.0
 40
0.16666667
  0
ENDBLK
  5
BE
100
AcDbEntity
100
AcDbBlockEnd
  0
BLOCK
  5
BF
100
AcDbEntity
  8
0
100
AcDbBlockBegin
  2
CDWK_PTTYP10
 70
     0
 10
0.0
 20
0.0
 30
0.0
  3
CDWK_PTTYP10
  1

  4
Cadwork node
  0
CIRCLE
  5
C0
100
AcDbEntity
  8
0
 62
     0
370
    -2
100
AcDbCircle
 10
0.0
 20
0.0
 30
0.0
 40
0.5
  0
ENDBLK
  5
C1
100
AcDbEntity
100
AcDbBlockEnd
  0
BLOCK
  5
C2
100
AcDbEntity
  8
0
100
AcDbBlockBegin
  2
CDWK_PTTYP11
 70
     0
 10
0.0
 20
0.0
 30
0.0
  3
CDWK_PTTYP11
  1

  4
Cadwork node
  0
CIRCLE
  5
C3
100
AcDbEntity
  8
0
 62
     0
370
    -2
100
AcDbCircle
 10
0.0
 20
0.0
 30
0.0
 40
0.5
  0
CIRCLE
  5
C4
100
AcDbEntity
  8
0
 62
     0
370
    -2
100
AcDbCircle
 10
0.0
 20
0.0
 30
0.0
 40
0.25
  0
ENDBLK
  5
C5
100
AcDbEntity
100
AcDbBlockEnd
  0
BLOCK
  5
C6
100
AcDbEntity
  8
0
100
AcDbBlockBegin
  2
CDWK_PTTYP12
 70
     0
 10
0.0
 20
0.0
 30
0.0
  3
CDWK_PTTYP12
  1

  4
Cadwork node
  0
CIRCLE
  5
C7
100
AcDbEntity
  8
0
 62
     0
370
    -2
100
AcDbCircle
 10
0.0
 20
0.0
 30
0.0
 40
0.5
  0
CIRCLE
  5
C8
100
AcDbEntity
  8
0
 62
     0
370
    -2
100
AcDbCircle
 10
0.25
 20
0.0
 30
0.0
 40
0.25
  0
ENDBLK
  5
C9
100
AcDbEntity
100
AcDbBlockEnd
  0
BLOCK
  5
CA
100
AcDbEntity
  8
0
100
AcDbBlockBegin
  2
CDWK_PTTYP13
 70
     0
 10
0.0
 20
0.0
 30
0.0
  3
CDWK_PTTYP13
  1

  4
Cadwork node
  0
CIRCLE
  5
CB
100
AcDbEntity
  8
0
 62
     0
370
    -2
100
AcDbCircle
 10
0.0
 20
0.0
 30
0.0
 40
0.5
  0
CIRCLE
  5
CC
100
AcDbEntity
  8
0
 62
     0
370
    -2
100
AcDbCircle
 10
0.25
 20
0.0
 30
0.0
 40
0.25
  0
CIRCLE
  5
CD
100
AcDbEntity
  8
0
 62
     0
370
    -2
100
AcDbCircle
 10
-0.25
 20
0.0
 30
0.0
 40
0.25
  0
ENDBLK
  5
CE
100
AcDbEntity
100
AcDbBlockEnd
  0
BLOCK
  5
CF
100
AcDbEntity
  8
0
100
AcDbBlockBegin
  2
CDWK_PTTYP14
 70
     0
 10
0.0
 20
0.0
 30
0.0
  3
CDWK_PTTYP14
  1

  4
Cadwork node
  0
POINT
  5
D0
100
AcDbEntity
  8
0
 62
     0
100
AcDbPoint
 10
0.0
 20
0.0
 30
0.0
  0
ENDBLK
  5
D1
100
AcDbEntity
100
AcDbBlockEnd
  0
BLOCK
  5
D2
100
AcDbEntity
  8
0
100
AcDbBlockBegin
  2
CDWK_PTTYP15
 70
     0
 10
0.0
 20
0.0
 30
0.0
  3
CDWK_PTTYP15
  1

  4
Cadwork node
  0
POINT
  5
D3
100
AcDbEntity
  8
0
 62
     0
100
AcDbPoint
 10
0.0
 20
0.0
 30
0.0
  0
ENDBLK
  5
D4
100
AcDbEntity
100
AcDbBlockEnd
  0
BLOCK
  5
D5
100
AcDbEntity
  8
0
100
AcDbBlockBegin
  2
CDWK_PTTYP16
 70
     0
 10
0.0
 20
0.0
 30
0.0
  3
CDWK_PTTYP16
  1

  4
Cadwork node
  0
LINE
  5
D6
100
AcDbEntity
  8
0
 62
     0
370
    -2
100
AcDbLine
 10
-0.5
 20
-0.28867513
 30
0.0
 11
0.5
 21
-0.28867513
 31
0.0
  0
LINE
  5
D7
100
AcDbEntity
  8
0
 62
     0
370
    -2
100
AcDbLine
 10
0.5
 20
-0.28867513
 30
0.0
 11
0.0
 21
0.57735027
 31
0.0
  0
LINE
  5
D8
100
AcDbEntity
  8
0
 62
     0
370
    -2
100
AcDbLine
 10
0.0
 20
0.57735027
 30
0.0
 11
-0.5
 21
-0.28867513
 31
0.0
  0
CIRCLE
  5
D9
100
AcDbEntity
  8
0
 62
     0
370
    -2
100
AcDbCircle
 10
0.0
 20
0.0
 30
0.0
 40
0.28867513
  0
ENDBLK
  5
DA
100
AcDbEntity
100
AcDbBlockEnd
  0
BLOCK
  5
DB
100
AcDbEntity
  8
0
100
AcDbBlockBegin
  2
CDWK_PTTYP17
 70
     0
 10
0.0
 20
0.0
 30
0.0
  3
CDWK_PTTYP17
  1

  4
Cadwork node
  0
CIRCLE
  5
DC
100
AcDbEntity
  8
0
 62
     0
370
    -2
100
AcDbCircle
 10
0.0
 20
0.0
 30
0.0
 40
0.5
  0
HATCH
  5
DD
100
AcDbEntity
  8
0
 62
     0
370
    -2
100
AcDbHatch
 10
0.0
 20
0.0
 30
0.0
210
0.0
220
0.0
230
1.0
  2
SOLID
 70
     1
 71
     0
 91
        1
 92
        1
 93
        1
 72
     2
 10
0.0
 20
0.0
 40
0.25
 50
0.0
 51
360.0
 73
     1
 97
        0
 75
     0
 76
     1
 98
        1
 10
0.0
 20
0.0
  0
ENDBLK
  5
DE
100
AcDbEntity
100
AcDbBlockEnd
  0
BLOCK
  5
DF
100
AcDbEntity
  8
0
100
AcDbBlockBegin
  2
CDWK_PTTYP18
 70
     0
 10
0.0
 20
0.0
 30
0.0
  3
CDWK_PTTYP18
  1

  4
Cadwork node
  0
CIRCLE
  5
E0
100
AcDbEntity
  8
0
 62
     0
370
    -2
100
AcDbCircle
 10
0.0
 20
0.0
 30
0.0
 40
0.5
  0
CIRCLE
  5
E1
100
AcDbEntity
  8
0
 62
     0
370
    -2
100
AcDbCircle
 10
0.0
 20
0.0
 30
0.0
 40
0.2
  0
ENDBLK
  5
E2
100
AcDbEntity
100
AcDbBlockEnd
  0
BLOCK
  5
E3
100
AcDbEntity
  8
0
100
AcDbBlockBegin
  2
CDWK_PTTYP19
 70
     0
 10
0.0
 20
0.0
 30
0.0
  3
CDWK_PTTYP19
  1

  4
Cadwork node
  0
CIRCLE
  5
E4
100
AcDbEntity
  8
0
 62
     0
370
    -2
100
AcDbCircle
 10
0.0
 20
0.0
 30
0.0
 40
0.4
  0
CIRCLE
  5
E5
100
AcDbEntity
  8
0
 62
     0
370
    -2
100
AcDbCircle
 10
0.0
 20
0.0
 30
0.0
 40
0.25
  0
LINE
  5
E6
100
AcDbEntity
  8
0
 62
     0
370
    -2
100
AcDbLine
 10
-0.25
 20
0.0
 30
0.0
 11
0.25
 21
0.0
 31
0.0
  0
ENDBLK
  5
E7
100
AcDbEntity
100
AcDbBlockEnd
  0
BLOCK
  5
E8
100
AcDbEntity
  8
0
100
AcDbBlockBegin
  2
CDWK_PTTYP20
 70
     0
 10
0.0
 20
0.0
 30
0.0
  3
CDWK_PTTYP20
  1

  4
Cadwork node
  0
CIRCLE
  5
E9
100
AcDbEntity
  8
0
 62
     0
370
    -2
100
AcDbCircle
 10
0.0
 20
0.0
 30
0.0
 40
0.5
  0
CIRCLE
  5
EA
100
AcDbEntity
  8
0
 62
     0
370
    -2
100
AcDbCircle
 10
0.0
 20
0.0
 30
0.0
 40
0.3
  0
ENDBLK
  5
EB
100
AcDbEntity
100
AcDbBlockEnd
  0
BLOCK
  5
EC
100
AcDbEntity
  8
0
100
AcDbBlockBegin
  2
CDWK_PTTYP21
 70
     0
 10
0.0
 20
0.0
 30
0.0
  3
CDWK_PTTYP21
  1

  4
Cadwork node
  0
CIRCLE
  5
ED
100
AcDbEntity
  8
0
 62
     0
370
    -2
100
AcDbCircle
 10
0.0
 20
0.0
 30
0.0
 40
0.5
  0
LINE
  5
EE
100
AcDbEntity
  8
0
 62
     0
370
    -2
100
AcDbLine
 10
-0.5
 20
0.0
 30
0.0
 11
0.5
 21
0.0
 31
0.0
  0
ENDBLK
  5
EF
100
AcDbEntity
100
AcDbBlockEnd
  0
BLOCK
  5
F0
100
AcDbEntity
  8
0
100
AcDbBlockBegin
  2
CDWK_PTTYP22
 70
     0
 10
0.0
 20
0.0
 30
0.0
  3
CDWK_PTTYP22
  1

  4
Cadwork node
  0
POINT
  5
F1
100
AcDbEntity
  8
0
 62
     0
100
AcDbPoint
 10
0.0
 20
0.0
 30
0.0
  0
ENDBLK
  5
F2
100
AcDbEntity
100
AcDbBlockEnd
  0
BLOCK
  5
F3
100
AcDbEntity
  8
0
100
AcDbBlockBegin
  2
CDWK_PTTYP23
 70
     0
 10
0.0
 20
0.0
 30
0.0
  3
CDWK_PTTYP23
  1

  4
Cadwork node
  0
POINT
  5
F4
100
AcDbEntity
  8
0
 62
     0
100
AcDbPoint
 10
0.0
 20
0.0
 30
0.0
  0
ENDBLK
  5
F5
100
AcDbEntity
100
AcDbBlockEnd
  0
BLOCK
  5
F6
100
AcDbEntity
  8
0
100
AcDbBlockBegin
  2
CDWK_PTTYP24
 70
     0
 10
0.0
 20
0.0
 30
0.0
  3
CDWK_PTTYP24
  1

  4
Cadwork node
  0
POINT
  5
F7
100
AcDbEntity
  8
0
 62
     0
100
AcDbPoint
 10
0.0
 20
0.0
 30
0.0
  0
ENDBLK
  5
F8
100
AcDbEntity
100
AcDbBlockEnd
  0
BLOCK
  5
F9
100
AcDbEntity
  8
0
100
AcDbBlockBegin
  2
CDWK_PTTYP25
 70
     0
 10
0.0
 20
0.0
 30
0.0
  3
CDWK_PTTYP25
  1

  4
Cadwork node
  0
LINE
  5
FA
100
AcDbEntity
  8
0
 62
     0
370
    -2
100
AcDbLine
 10
-0.43290044
 20
-0.25
 30
0.0
 11
0.43290044
 21
-0.25
 31
0.0
  0
LINE
  5
FB
100
AcDbEntity
  8
0
 62
     0
370
    -2
100
AcDbLine
 10
-0.43290044
 20
-0.25
 30
0.0
 11
0.0
 21
0.5
 31
0.0
  0
LINE
  5
FC
100
AcDbEntity
  8
0
 62
     0
370
    -2
100
AcDbLine
 10
0.43290044
 20
-0.25
 30
0.0
 11
0.0
 21
0.5
 31
0.0
  0
CIRCLE
  5
FD
100
AcDbEntity
  8
0
 62
     0
370
    -2
100
AcDbCircle
 10
0.0
 20
0.0
 30
0.0
 40
0.5
  0
ENDBLK
  5
FE
100
AcDbEntity
100
AcDbBlockEnd
  0
BLOCK
  5
FF
100
AcDbEntity
  8
0
100
AcDbBlockBegin
  2
CDWK_PTTYP26
 70
     0
 10
0.0
 20
0.0
 30
0.0
  3
CDWK_PTTYP26
  1

  4
Cadwork node
  0
LINE
  5
100
100
AcDbEntity
  8
0
 62
     0
370
    -2
100
AcDbLine
 10
-0.5
 20
-0.28850001
 30
0.0
 11
0.5
 21
-0.28850001
 31
0.0
  0
LINE
  5
101
100
AcDbEntity
  8
0
 62
     0
370
    -2
100
AcDbLine
 10
-0.5
 20
-0.28850001
 30
0.0
 11
0.0
 21
0.57736721
 31
0.0
  0
LINE
  5
102
100
AcDbEntity
  8
0
 62
     0
370
    -2
100
AcDbLine
 10
0.5
 20
-0.28850001
 30
0.0
 11
0.0
 21
0.57736721
 31
0.0
  0
CIRCLE
  5
103
100
AcDbEntity
  8
0
 62
     0
370
    -2
100
AcDbCircle
 10
0.0
 20
0.0
 30
0.0
 40
0.1312336
  0
ENDBLK
  5
104
100
AcDbEntity
100
AcDbBlockEnd
  0
BLOCK
  5
105
100
AcDbEntity
  8
0
100
AcDbBlockBegin
  2
CDWK_PTTYP27
 70
     0
 10
0.0
 20
0.0
 30
0.0
  3
CDWK_PTTYP27
  1

  4
Cadwork node
  0
LINE
  5
106
100
AcDbEntity
  8
0
 62
     0
370
    -2
100
AcDbLine
 10
-0.43290044
 20
-0.25
 30
0.0
 11
0.43290044
 21
-0.25
 31
0.0
  0
LINE
  5
107
100
AcDbEntity
  8
0
 62
     0
370
    -2
100
AcDbLine
 10
-0.43290044
 20
-0.25
 30
0.0
 11
0.0
 21
0.5
 31
0.0
  0
LINE
  5
108
100
AcDbEntity
  8
0
 62
     0
370
    -2
100
AcDbLine
 10
0.43290044
 20
-0.25
 30
0.0
 11
0.0
 21
0.5
 31
0.0
  0
CIRCLE
  5
109
100
AcDbEntity
  8
0
 62
     0
370
    -2
100
AcDbCircle
 10
0.0
 20
0.0
 30
0.0
 40
0.5
  0
CIRCLE
  5
10A
100
AcDbEntity
  8
0
 62
     0
370
    -2
100
AcDbCircle
 10
0.0
 20
0.0
 30
0.0
 40
0.1312336
  0
ENDBLK
  5
10B
100
AcDbEntity
100
AcDbBlockEnd
  0
BLOCK
  5
10C
100
AcDbEntity
  8
0
100
AcDbBlockBegin
  2
CDWK_PTTYP28
 70
     0
 10
0.0
 20
0.0
 30
0.0
  3
CDWK_PTTYP28
  1

  4
Cadwork node
  0
POINT
  5
10D
100
AcDbEntity
  8
0
 62
     0
100
AcDbPoint
 10
0.0
 20
0.0
 30
0.0
  0
ENDBLK
  5
10E
100
AcDbEntity
100
AcDbBlockEnd
  0
BLOCK
  5
10F
100
AcDbEntity
  8
0
100
AcDbBlockBegin
  2
CDWK_PTTYP29
 70
     0
 10
0.0
 20
0.0
 30
0.0
  3
CDWK_PTTYP29
  1

  4
Cadwork node
  0
CIRCLE
  5
110
100
AcDbEntity
  8
0
 62
     0
370
    -2
100
AcDbCircle
 10
0.0
 20
0.0
 30
0.0
 40
0.5
  0
CIRCLE
  5
111
100
AcDbEntity
  8
0
 62
     0
370
    -2
100
AcDbCircle
 10
0.0
 20
0.0
 30
0.0
 40
0.375
  0
CIRCLE
  5
112
100
AcDbEntity
  8
0
 62
     0
370
    -2
100
AcDbCircle
 10
0.0
 20
0.0
 30
0.0
 40
0.21875
  0
ENDBLK
  5
113
100
AcDbEntity
100
AcDbBlockEnd
  0
BLOCK
  5
114
100
AcDbEntity
  8
0
100
AcDbBlockBegin
  2
CDWK_PTTYP30
 70
     0
 10
0.0
 20
0.0
 30
0.0
  3
CDWK_PTTYP30
  1

  4
Cadwork node
  0
LINE
  5
115
100
AcDbEntity
  8
0
 62
     0
370
    -2
100
AcDbLine
 10
0.17680339
 20
0.17680339
 30
0.0
 11
0.5
 21
0.5
 31
0.0
  0
LINE
  5
116
100
AcDbEntity
  8
0
 62
     0
370
    -2
100
AcDbLine
 10
-0.17680339
 20
0.17680339
 30
0.0
 11
-0.5
 21
0.5
 31
0.0
  0
LINE
  5
117
100
AcDbEntity
  8
0
 62
     0
370
    -2
100
AcDbLine
 10
0.17680339
 20
-0.17680339
 30
0.0
 11
0.5
 21
-0.5
 31
0.0
  0
LINE
  5
118
100
AcDbEntity
  8
0
 62
     0
370
    -2
100
AcDbLine
 10
-0.17680339
 20
-0.17680339
 30
0.0
 11
-0.5
 21
-0.5
 31
0.0
  0
ENDBLK
  5
119
100
AcDbEntity
100
AcDbBlockEnd
  0
BLOCK
  5
11A
100
AcDbEntity
  8
0
100
AcDbBlockBegin
  2
CDWK_PTTYP31
 70
     0
 10
0.0
 20
0.0
 30
0.0
  3
CDWK_PTTYP31
  1

  4
Cadwork node
  0
CIRCLE
  5
11B
100
AcDbEntity
  8
0
 62
     0
370
    -2
100
AcDbCircle
 10
0.0
 20
0.0
 30
0.0
 40
0.075
  0
LINE
  5
11C
100
AcDbEntity
  8
0
 62
     0
370
    -2
100
AcDbLine
 10
0.075
 20
0.0
 30
0.0
 11
0.5
 21
0.0
 31
0.0
  0
LINE
  5
11D
100
AcDbEntity
  8
0
 62
     0
370
    -2
100
AcDbLine
 10
-0.075
 20
0.0
 30
0.0
 11
-0.5
 21
0.0
 31
0.0
  0
LINE
  5
11E
100
AcDbEntity
  8
0
 62
     0
370
    -2
100
AcDbLine
 10
0.0
 20
0.075
 30
0.0
 11
0.0
 21
0.5
 31
0.0
  0
LINE
  5
11F
100
AcDbEntity
  8
0
 62
     0
370
    -2
100
AcDbLine
 10
0.0
 20
-0.075
 30
0.0
 11
0.0
 21
-0.5
 31
0.0
  0
ENDBLK
  5
120
100
AcDbEntity
100
AcDbBlockEnd
  0
BLOCK
  5
121
100
AcDbEntity
  8
0
100
AcDbBlockBegin
  2
CDWK_PTTYP32
 70
     0
 10
0.0
 20
0.0
 30
0.0
  3
CDWK_PTTYP32
  1

  4
Cadwork node
  0
CIRCLE
  5
122
100
AcDbEntity
  8
0
 62
     0
370
    -2
100
AcDbCircle
 10
0.0
 20
0.0
 30
0.0
 40
0.5
  0
CIRCLE
  5
123
100
AcDbEntity
  8
0
 62
     0
370
    -2
100
AcDbCircle
 10
0.0
 20
0.0
 30
0.0
 40
0.16666667
  0
LINE
  5
124
100
AcDbEntity
  8
0
 62
     0
370
    -2
100
AcDbLine
 10
0.11786893
 20
0.11786893
 30
0.0
 11
0.35360678
 21
0.35360678
 31
0.0
  0
LINE
  5
125
100
AcDbEntity
  8
0
 62
     0
370
    -2
100
AcDbLine
 10
-0.11786893
 20
0.11786893
 30
0.0
 11
-0.35360678
 21
0.35360678
 31
0.0
  0
LINE
  5
126
100
AcDbEntity
  8
0
 62
     0
370
    -2
100
AcDbLine
 10
0.11786893
 20
-0.11786893
 30
0.0
 11
0.35360678
 21
-0.35360678
 31
0.0
  0
LINE
  5
127
100
AcDbEntity
  8
0
 62
     0
370
    -2
100
AcDbLine
 10
-0.11786893
 20
-0.11786893
 30
0.0
 11
-0.35360678
 21
-0.35360678
 31
0.0
  0
ENDBLK
  5
128
100
AcDbEntity
100
AcDbBlockEnd
  0
BLOCK
  5
129
100
AcDbEntity
  8
0
100
AcDbBlockBegin
  2
CDWK_PTTYP33
 70
     0
 10
0.0
 20
0.0
 30
0.0
  3
CDWK_PTTYP33
  1

  4
Cadwork node
  0
CIRCLE
  5
12A
100
AcDbEntity
  8
0
 62
     0
370
    -2
100
AcDbCircle
 10
0.0
 20
0.0
 30
0.0
 40
0.5
  0
LINE
  5
12B
100
AcDbEntity
  8
0
 62
     0
370
    -2
100
AcDbLine
 10
0.0
 20
0.5
 30
0.0
 11
0.0
 21
-0.5
 31
0.0
  0
LINE
  5
12C
100
AcDbEntity
  8
0
 62
     0
370
    -2
100
AcDbLine
 10
-0.5
 20
0.0
 30
0.0
 11
0.5
 21
0.0
 31
0.0
  0
ENDBLK
  5
12D
100
AcDbEntity
100
AcDbBlockEnd
  0
BLOCK
  5
12E
100
AcDbEntity
  8
0
100
AcDbBlockBegin
  2
CDWK_PTTYP34
 70
     0
 10
0.0
 20
0.0
 30
0.0
  3
CDWK_PTTYP34
  1

  4
Cadwork node
  0
CIRCLE
  5
12F
100
AcDbEntity
  8
0
 62
     0
370
    -2
100
AcDbCircle
 10
0.0
 20
0.0
 30
0.0
 40
0.5
  0
LINE
  5
130
100
AcDbEntity
  8
0
 62
     0
370
    -2
100
AcDbLine
 10
-0.30360678
 20
-0.40360678
 30
0.0
 11
0.40360678
 21
0.30360678
 31
0.0
  0
LINE
  5
131
100
AcDbEntity
  8
0
 62
     0
370
    -2
100
AcDbLine
 10
-0.40360678
 20
-0.30360678
 30
0.0
 11
0.30360678
 21
0.40360678
 31
0.0
  0
ENDBLK
  5
132
100
AcDbEntity
100
AcDbBlockEnd
  0
BLOCK
  5
133
100
AcDbEntity
  8
0
100
AcDbBlockBegin
  2
CDWK_PTTYP35
 70
     0
 10
0.0
 20
0.0
 30
0.0
  3
CDWK_PTTYP35
  1

  4
Cadwork node
  0
CIRCLE
  5
134
100
AcDbEntity
  8
0
 62
     0
370
    -2
100
AcDbCircle
 10
0.0
 20
0.0
 30
0.0
 40
0.21431634
  0
LINE
  5
135
100
AcDbEntity
  8
0
 62
     0
370
    -2
100
AcDbLine
 10
0.0
 20
0.21431634
 30
0.0
 11
0.0
 21
0.5
 31
0.0
  0
LINE
  5
136
100
AcDbEntity
  8
0
 62
     0
370
    -2
100
AcDbLine
 10
0.0
 20
-0.21431634
 30
0.0
 11
0.0
 21
-0.5
 31
0.0
  0
ENDBLK
  5
137
100
AcDbEntity
100
AcDbBlockEnd
  0
BLOCK
  5
138
100
AcDbEntity
  8
0
100
AcDbBlockBegin
  2
CDWK_PTTYP36
 70
     0
 10
0.0
 20
0.0
 30
0.0
  3
CDWK_PTTYP36
  1

  4
Cadwork node
  0
LINE
  5
139
100
AcDbEntity
  8
0
 62
     0
370
    -2
100
AcDbLine
 10
-0.5
 20
-0.16666667
 30
0.0
 11
0.5
 21
-0.16666667
 31
0.0
  0
LINE
  5
13A
100
AcDbEntity
  8
0
 62
     0
370
    -2
100
AcDbLine
 10
0.5
 20
-0.16666667
 30
0.0
 11
0.5
 21
0.16666667
 31
0.0
  0
LINE
  5
13B
100
AcDbEntity
  8
0
 62
     0
370
    -2
100
AcDbLine
 10
0.5
 20
0.16666667
 30
0.0
 11
-0.5
 21
0.16666667
 31
0.0
  0
LINE
  5
13C
100
AcDbEntity
  8
0
 62
     0
370
    -2
100
AcDbLine
 10
-0.5
 20
0.16666667
 30
0.0
 11
-0.5
 21
-0.16666667
 31
0.0
  0
SOLID
  5
13D
100
AcDbEntity
  8
0
 62
     0
100
AcDbTrace
 10
-0.5
 20
-0.16666667
 11
0.5
 21
0.16666667
 12
0.5
 22
-0.16666667
 13
0.5
 23
-0.16666667
  0
ENDBLK
  5
13E
100
AcDbEntity
100
AcDbBlockEnd
  0
BLOCK
  5
13F
100
AcDbEntity
  8
0
100
AcDbBlockBegin
  2
CDWK_PTTYP37
 70
     0
 10
0.0
 20
0.0
 30
0.0
  3
CDWK_PTTYP37
  1

  4
Cadwork node
  0
CIRCLE
  5
140
100
AcDbEntity
  8
0
 62
     0
370
    -2
100
AcDbCircle
 10
0.0
 20
0.0
 30
0.0
 40
0.5
  0
SOLID
  5
141
100
AcDbEntity
  8
0
 62
     0
100
AcDbTrace
 10
0.0
 20
0.0
 11
0.35350001
 21
0.35350001
 12
0.5
 22
0.0
 13
0.46200001
 23
0.19149999
  0
SOLID
  5
142
100
AcDbEntity
  8
0
 62
     0
100
AcDbTrace
 10
0.0
 20
0.0
 11
0.35350001
 21
-0.35350001
 12
0.5
 22
0.0
 13
0.46200001
 23
-0.19149999
  0
SOLID
  5
143
100
AcDbEntity
  8
0
 62
     0
100
AcDbTrace
 10
0.0
 20
0.0
 11
0.0
 21
-0.5
 12
0.35350001
 22
-0.35350001
 13
0.19149999
 23
-0.46200001
  0
SOLID
  5
144
100
AcDbEntity
  8
0
 62
     0
100
AcDbTrace
 10
0.0
 20
0.0
 11
0.0
 21
-0.5
 12
-0.35350001
 22
-0.35350001
 13
-0.19149999
 23
-0.46200001
  0
ENDBLK
  5
145
100
AcDbEntity
100
AcDbBlockEnd
  0
BLOCK
  5
146
100
AcDbEntity
  8
0
100
AcDbBlockBegin
  2
CDWK_PTTYP38
 70
     0
 10
0.0
 20
0.0
 30
0.0
  3
CDWK_PTTYP38
  1

  4
Cadwork node
  0
CIRCLE
  5
147
100
AcDbEntity
  8
0
 62
     0
370
    -2
100
AcDbCircle
 10
0.0
 20
0.0
 30
0.0
 40
0.5
  0
SOLID
  5
148
100
AcDbEntity
  8
0
 62
     0
100
AcDbTrace
 10
0.0
 20
0.0
 11
0.35350001
 21
0.35350001
 12
0.0
 22
0.5
 13
0.19149999
 23
0.46200001
  0
SOLID
  5
149
100
AcDbEntity
  8
0
 62
     0
100
AcDbTrace
 10
0.0
 20
0.0
 11
0.5
 21
0.0
 12
0.35350001
 22
0.35350001
 13
0.46200001
 23
0.19149999
  0
SOLID
  5
14A
100
AcDbEntity
  8
0
 62
     0
100
AcDbTrace
 10
0.0
 20
0.0
 11
0.0
 21
-0.5
 12
-0.35350001
 22
-0.35350001
 13
-0.19149999
 23
-0.46200001
  0
SOLID
  5
14B
100
AcDbEntity
  8
0
 62
     0
100
AcDbTrace
 10
0.0
 20
0.0
 11
-0.5
 21
0.0
 12
-0.35350001
 22
-0.35350001
 13
-0.46200001
 23
-0.19149999
  0
ENDBLK
  5
14C
100
AcDbEntity
100
AcDbBlockEnd
  0
BLOCK
  5
14D
100
AcDbEntity
  8
Titelblatt
100
AcDbBlockBegin
  2
*D1
 70
     1
 10
0.0
 20
0.0
 30
0.0
  3
*D1
  1

  4
Cadwork dimension
  0
TEXT
  5
14E
100
AcDbEntity
  8
Titelblatt
 62
     1
370
    18
100
AcDbText
 10
14312.46938057
 20
5227.60270793
 30
0.0
 40
0.0025
  1
2.50
  7
ARIAL
 50
89.9999975
 41
0.8
 51
0.0
100
AcDbText
  0
LINE
  5
14F
100
AcDbEntity
  8
Titelblatt
 62
     1
370
    -2
100
AcDbLine
 10
14312.47178057
 20
5227.59412369
 30
0.0
 11
14312.42424837
 21
5227.59412369
 31
0.0
  0
LINE
  5
150
100
AcDbEntity
  8
Titelblatt
 62
     1
370
    -2
100
AcDbLine
 10
14312.47178057
 20
5227.61912369
 30
0.0
 11
14312.42187601
 21
5227.61912369
 31
0.0
  0
LINE
  5
151
100
AcDbEntity
  8
Titelblatt
 62
     1
370
    -2
100
AcDbLine
 10
14312.47038057
 20
5227.59272369
 30
0.0
 11
14312.47038057
 21
5227.62052369
 31
0.0
  0
LINE
  5
152
100
AcDbEntity
  8
Titelblatt
 62
     1
370
    -2
100
AcDbLine
 10
14312.47108057
 20
5227.59342369
 30
0.0
 11
14312.46968057
 21
5227.59482369
 31
0.0
  0
LINE
  5
153
100
AcDbEntity
  8
Titelblatt
 62
     1
370
    -2
100
AcDbLine
 10
14312.47108057
 20
5227.61842369
 30
0.0
 11
14312.46968057
 21
5227.61982369
 31
0.0
  0
ENDBLK
  5
154
100
AcDbEntity
100
AcDbBlockEnd
  0
BLOCK
  5
155
100
AcDbEntity
  8
Titelblatt
100
AcDbBlockBegin
  2
*D2
 70
     1
 10
0.0
 20
0.0
 30
0.0
  3
*D2
  1

  4
Cadwork dimension
  0
TEXT
  5
156
100
AcDbEntity
  8
Titelblatt
 62
     1
370
    18
100
AcDbText
 10
14312.46938057
 20
5227.62280871
 30
0.0
 40
0.0025
  1
1.40
  7
ARIAL
 50
89.9999975
 41
0.8
 51
0.0
100
AcDbText
  0
LINE
  5
157
100
AcDbEntity
  8
Titelblatt
 62
     1
370
    -2
100
AcDbLine
 10
14312.47178057
 20
5227.61912369
 30
0.0
 11
14312.42187601
 21
5227.61912369
 31
0.0
  0
LINE
  5
158
100
AcDbEntity
  8
Titelblatt
 62
     1
370
    -2
100
AcDbLine
 10
14312.47178057
 20
5227.63312369
 30
0.0
 11
14312.42187601
 21
5227.63312369
 31
0.0
  0
LINE
  5
159
100
AcDbEntity
  8
Titelblatt
 62
     1
370
    -2
100
AcDbLine
 10
14312.47038057
 20
5227.61772369
 30
0.0
 11
14312.47038057
 21
5227.63452369
 31
0.0
  0
LINE
  5
15A
100
AcDbEntity
  8
Titelblatt
 62
     1
370
    -2
100
AcDbLine
 10
14312.47108057
 20
5227.61842369
 30
0.0
 11
14312.46968057
 21
5227.61982369
 31
0.0
  0
LINE
  5
15B
100
AcDbEntity
  8
Titelblatt
 62
     1
370
    -2
100
AcDbLine
 10
14312.47108057
 20
5227.63242369
 30
0.0
 11
14312.46968057
 21
5227.63382369
 31
0.0
  0
ENDBLK
  5
15C
100
AcDbEntity
100
AcDbBlockEnd
  0
BLOCK
  5
15D
100
AcDbEntity
  8
Titelblatt
100
AcDbBlockBegin
  2
*D3
 70
     1
 10
0.0
 20
0.0
 30
0.0
  3
*D3
  1

  4
Cadwork dimension
  0
TEXT
  5
15E
100
AcDbEntity
  8
Titelblatt
 62
     1
370
    18
100
AcDbText
 10
14312.46938057
 20
5227.64065702
 30
0.0
 40
0.0025
  1
2.20
  7
ARIAL
 50
89.9999975
 41
0.8
 51
0.0
100
AcDbText
  0
LINE
  5
15F
100
AcDbEntity
  8
Titelblatt
 62
     1
370
    -2
100
AcDbLine
 10
14312.47178057
 20
5227.63312369
 30
0.0
 11
14312.42187601
 21
5227.63312369
 31
0.0
  0
LINE
  5
160
100
AcDbEntity
  8
Titelblatt
 62
     1
370
    -2
100
AcDbLine
 10
14312.47178057
 20
5227.65512369
 30
0.0
 11
14312.46038057
 21
5227.65512369
 31
0.0
  0
LINE
  5
161
100
AcDbEntity
  8
Titelblatt
 62
     1
370
    -2
100
AcDbLine
 10
14312.47038057
 20
5227.63172369
 30
0.0
 11
14312.47038057
 21
5227.65652369
 31
0.0
  0
LINE
  5
162
100
AcDbEntity
  8
Titelblatt
 62
     1
370
    -2
100
AcDbLine
 10
14312.47108057
 20
5227.63242369
 30
0.0
 11
14312.46968057
 21
5227.63382369
 31
0.0
  0
LINE
  5
163
100
AcDbEntity
  8
Titelblatt
 62
     1
370
    -2
100
AcDbLine
 10
14312.47108057
 20
5227.65442369
 30
0.0
 11
14312.46968057
 21
5227.65582369
 31
0.0
  0
ENDBLK
  5
164
100
AcDbEntity
100
AcDbBlockEnd
  0
BLOCK
  5
165
100
AcDbEntity
  8
Titelblatt
100
AcDbBlockBegin
  2
*D4
 70
     1
 10
0.0
 20
0.0
 30
0.0
  3
*D4
  1

  4
Cadwork dimension
  0
TEXT
  5
166
100
AcDbEntity
  8
Titelblatt
 62
     1
370
    18
100
AcDbText
 10
14312.46938057
 20
5227.65920319
 30
0.0
 40
0.0025
  1
1.40
  7
ARIAL
 50
89.9999975
 41
0.8
 51
0.0
100
AcDbText
  0
LINE
  5
167
100
AcDbEntity
  8
Titelblatt
 62
     1
370
    -2
100
AcDbLine
 10
14312.47178057
 20
5227.65512369
 30
0.0
 11
14312.46038057
 21
5227.65512369
 31
0.0
  0
LINE
  5
168
100
AcDbEntity
  8
Titelblatt
 62
     1
370
    -2
100
AcDbLine
 10
14312.47178057
 20
5227.66912369
 30
0.0
 11
14312.46038057
 21
5227.66912369
 31
0.0
  0
LINE
  5
169
100
AcDbEntity
  8
Titelblatt
 62
     1
370
    -2
100
AcDbLine
 10
14312.47038057
 20
5227.65372369
 30
0.0
 11
14312.47038057
 21
5227.67052369
 31
0.0
  0
LINE
  5
16A
100
AcDbEntity
  8
Titelblatt
 62
     1
370
    -2
100
AcDbLine
 10
14312.47108057
 20
5227.65442369
 30
0.0
 11
14312.46968057
 21
5227.65582369
 31
0.0
  0
LINE
  5
16B
100
AcDbEntity
  8
Titelblatt
 62
     1
370
    -2
100
AcDbLine
 10
14312.47108057
 20
5227.66842369
 30
0.0
 11
14312.46968057
 21
5227.66982369
 31
0.0
  0
ENDBLK
  5
16C
100
AcDbEntity
100
AcDbBlockEnd
  0
BLOCK
  5
16D
100
AcDbEntity
  8
Titelblatt
100
AcDbBlockBegin
  2
*D5
 70
     1
 10
0.0
 20
0.0
 30
0.0
  3
*D5
  1

  4
Cadwork dimension
  0
TEXT
  5
16E
100
AcDbEntity
  8
Titelblatt
 62
     1
370
    18
100
AcDbText
 10
14312.46938057
 20
5227.6813938
 30
0.0
 40
0.0025
  1
2.50
  7
ARIAL
 50
89.9999975
 41
0.8
 51
0.0
100
AcDbText
  0
LINE
  5
16F
100
AcDbEntity
  8
Titelblatt
 62
     1
370
    -2
100
AcDbLine
 10
14312.47178057
 20
5227.66912369
 30
0.0
 11
14312.46038057
 21
5227.66912369
 31
0.0
  0
LINE
  5
170
100
AcDbEntity
  8
Titelblatt
 62
     1
370
    -2
100
AcDbLine
 10
14312.47178057
 20
5227.69473058
 30
0.0
 11
14312.42187601
 21
5227.69473058
 31
0.0
  0
LINE
  5
171
100
AcDbEntity
  8
Titelblatt
 62
     1
370
    -2
100
AcDbLine
 10
14312.47038057
 20
5227.66772369
 30
0.0
 11
14312.47038057
 21
5227.69613058
 31
0.0
  0
LINE
  5
172
100
AcDbEntity
  8
Titelblatt
 62
     1
370
    -2
100
AcDbLine
 10
14312.47108057
 20
5227.66842369
 30
0.0
 11
14312.46968057
 21
5227.66982369
 31
0.0
  0
LINE
  5
173
100
AcDbEntity
  8
Titelblatt
 62
     1
370
    -2
100
AcDbLine
 10
14312.47108057
 20
5227.69403058
 30
0.0
 11
14312.46968057
 21
5227.69543058
 31
0.0
  0
ENDBLK
  5
174
100
AcDbEntity
100
AcDbBlockEnd
  0
BLOCK
  5
175
100
AcDbEntity
  8
Titelblatt
100
AcDbBlockBegin
  2
*D6
 70
     1
 10
0.0
 20
0.0
 30
0.0
  3
*D6
  1

  4
Cadwork dimension
  0
TEXT
  5
176
100
AcDbEntity
  8
Titelblatt
 62
     1
370
    18
100
AcDbText
 10
14312.46938057
 20
5227.70682021
 30
0.0
 40
0.0025
  1
2.50
  7
ARIAL
 50
89.9999975
 41
0.8
 51
0.0
100
AcDbText
  0
LINE
  5
177
100
AcDbEntity
  8
Titelblatt
 62
     1
370
    -2
100
AcDbLine
 10
14312.47178057
 20
5227.69473058
 30
0.0
 11
14312.42187601
 21
5227.69473058
 31
0.0
  0
LINE
  5
178
100
AcDbEntity
  8
Titelblatt
 62
     1
370
    -2
100
AcDbLine
 10
14312.47178057
 20
5227.71997651
 30
0.0
 11
14312.46038057
 21
5227.71997651
 31
0.0
  0
LINE
  5
179
100
AcDbEntity
  8
Titelblatt
 62
     1
370
    -2
100
AcDbLine
 10
14312.47038057
 20
5227.69333058
 30
0.0
 11
14312.47038057
 21
5227.72137651
 31
0.0
  0
LINE
  5
17A
100
AcDbEntity
  8
Titelblatt
 62
     1
370
    -2
100
AcDbLine
 10
14312.47108057
 20
5227.69403058
 30
0.0
 11
14312.46968057
 21
5227.69543058
 31
0.0
  0
LINE
  5
17B
100
AcDbEntity
  8
Titelblatt
 62
     1
370
    -2
100
AcDbLine
 10
14312.47108057
 20
5227.71927651
 30
0.0
 11
14312.46968057
 21
5227.72067651
 31
0.0
  0
ENDBLK
  5
17C
100
AcDbEntity
100
AcDbBlockEnd
  0
BLOCK
  5
17D
100
AcDbEntity
  8
Titelblatt
100
AcDbBlockBegin
  2
*D7
 70
     1
 10
0.0
 20
0.0
 30
0.0
  3
*D7
  1

  4
Cadwork dimension
  0
TEXT
  5
17E
100
AcDbEntity
  8
Titelblatt
 62
     1
370
    18
100
AcDbText
 10
14312.46938057
 20
5227.73401676
 30
0.0
 40
0.0025
  1
3.00
  7
ARIAL
 50
89.9999975
 41
0.8
 51
0.0
100
AcDbText
  0
LINE
  5
17F
100
AcDbEntity
  8
Titelblatt
 62
     1
370
    -2
100
AcDbLine
 10
14312.47178057
 20
5227.71997651
 30
0.0
 11
14312.46038057
 21
5227.71997651
 31
0.0
  0
LINE
  5
180
100
AcDbEntity
  8
Titelblatt
 62
     1
370
    -2
100
AcDbLine
 10
14312.47178057
 20
5227.74912369
 30
0.0
 11
14312.46038057
 21
5227.74912369
 31
0.0
  0
LINE
  5
181
100
AcDbEntity
  8
Titelblatt
 62
     1
370
    -2
100
AcDbLine
 10
14312.47038057
 20
5227.71857651
 30
0.0
 11
14312.47038057
 21
5227.75052369
 31
0.0
  0
LINE
  5
182
100
AcDbEntity
  8
Titelblatt
 62
     1
370
    -2
100
AcDbLine
 10
14312.47108057
 20
5227.71927651
 30
0.0
 11
14312.46968057
 21
5227.72067651
 31
0.0
  0
LINE
  5
183
100
AcDbEntity
  8
Titelblatt
 62
     1
370
    -2
100
AcDbLine
 10
14312.47108057
 20
5227.74842369
 30
0.0
 11
14312.46968057
 21
5227.74982369
 31
0.0
  0
ENDBLK
  5
184
100
AcDbEntity
100
AcDbBlockEnd
  0
BLOCK
  5
185
100
AcDbEntity
  8
Titelblatt
100
AcDbBlockBegin
  2
*D8
 70
     1
 10
0.0
 20
0.0
 30
0.0
  3
*D8
  1

  4
Cadwork dimension
  0
TEXT
  5
186
100
AcDbEntity
  8
Titelblatt
 62
     1
370
    18
100
AcDbText
 10
14312.46938057
 20
5227.74999941
 30
0.0
 40
0.0025
  1
0.80
  7
ARIAL
 50
89.9999975
 41
0.8
 51
0.0
100
AcDbText
  0
LINE
  5
187
100
AcDbEntity
  8
Titelblatt
 62
     1
370
    -2
100
AcDbLine
 10
14312.47178057
 20
5227.74912369
 30
0.0
 11
14312.46038057
 21
5227.74912369
 31
0.0
  0
LINE
  5
188
100
AcDbEntity
  8
Titelblatt
 62
     1
370
    -2
100
AcDbLine
 10
14312.47178057
 20
5227.75712369
 30
0.0
 11
14312.46038057
 21
5227.75712369
 31
0.0
  0
LINE
  5
189
100
AcDbEntity
  8
Titelblatt
 62
     1
370
    -2
100
AcDbLine
 10
14312.47038057
 20
5227.74772369
 30
0.0
 11
14312.47038057
 21
5227.75852369
 31
0.0
  0
LINE
  5
18A
100
AcDbEntity
  8
Titelblatt
 62
     1
370
    -2
100
AcDbLine
 10
14312.47108057
 20
5227.74842369
 30
0.0
 11
14312.46968057
 21
5227.74982369
 31
0.0
  0
LINE
  5
18B
100
AcDbEntity
  8
Titelblatt
 62
     1
370
    -2
100
AcDbLine
 10
14312.47108057
 20
5227.75642369
 30
0.0
 11
14312.46968057
 21
5227.75782369
 31
0.0
  0
ENDBLK
  5
18C
100
AcDbEntity
100
AcDbBlockEnd
  0
BLOCK
  5
18D
100
AcDbEntity
  8
Titelblatt
100
AcDbBlockBegin
  2
*D9
 70
     1
 10
0.0
 20
0.0
 30
0.0
  3
*D9
  1

  4
Cadwork dimension
  0
TEXT
  5
18E
100
AcDbEntity
  8
Titelblatt
 62
     1
370
    18
100
AcDbText
 10
14312.31558785
 20
5227.54879357
 30
0.0
 40
0.0025
  1
0.80
  7
ARIAL
 50
0.0
 41
0.8
 51
0.0
100
AcDbText
  0
LINE
  5
18F
100
AcDbEntity
  8
Titelblatt
 62
     1
370
    -2
100
AcDbLine
 10
14312.31445856
 20
5227.54919357
 30
0.0
 11
14312.31445856
 21
5227.53779357
 31
0.0
  0
LINE
  5
190
100
AcDbEntity
  8
Titelblatt
 62
     1
370
    -2
100
AcDbLine
 10
14312.32245856
 20
5227.54919357
 30
0.0
 11
14312.32245856
 21
5227.53779357
 31
0.0
  0
LINE
  5
191
100
AcDbEntity
  8
Titelblatt
 62
     1
370
    -2
100
AcDbLine
 10
14312.31305856
 20
5227.54779357
 30
0.0
 11
14312.32385856
 21
5227.54779357
 31
0.0
  0
LINE
  5
192
100
AcDbEntity
  8
Titelblatt
 62
     1
370
    -2
100
AcDbLine
 10
14312.31375856
 20
5227.54709357
 30
0.0
 11
14312.31515856
 21
5227.54849357
 31
0.0
  0
LINE
  5
193
100
AcDbEntity
  8
Titelblatt
 62
     1
370
    -2
100
AcDbLine
 10
14312.32175856
 20
5227.54709357
 30
0.0
 11
14312.32315856
 21
5227.54849357
 31
0.0
  0
ENDBLK
  5
194
100
AcDbEntity
100
AcDbBlockEnd
  0
BLOCK
  5
195
100
AcDbEntity
  8
Titelblatt
100
AcDbBlockBegin
  2
*D10
 70
     1
 10
0.0
 20
0.0
 30
0.0
  3
*D10
  1

  4
Cadwork dimension
  0
TEXT
  5
196
100
AcDbEntity
  8
Titelblatt
 62
     1
370
    18
100
AcDbText
 10
14312.32500904
 20
5227.54879357
 30
0.0
 40
0.0025
  1
1.00
  7
ARIAL
 50
0.0
 41
0.8
 51
0.0
100
AcDbText
  0
LINE
  5
197
100
AcDbEntity
  8
Titelblatt
 62
     1
370
    -2
100
AcDbLine
 10
14312.32245856
 20
5227.54919357
 30
0.0
 11
14312.32245856
 21
5227.53779357
 31
0.0
  0
LINE
  5
198
100
AcDbEntity
  8
Titelblatt
 62
     1
370
    -2
100
AcDbLine
 10
14312.33245856
 20
5227.54919357
 30
0.0
 11
14312.33245856
 21
5227.53779357
 31
0.0
  0
LINE
  5
199
100
AcDbEntity
  8
Titelblatt
 62
     1
370
    -2
100
AcDbLine
 10
14312.32105856
 20
5227.54779357
 30
0.0
 11
14312.33385856
 21
5227.54779357
 31
0.0
  0
LINE
  5
19A
100
AcDbEntity
  8
Titelblatt
 62
     1
370
    -2
100
AcDbLine
 10
14312.32175856
 20
5227.54709357
 30
0.0
 11
14312.32315856
 21
5227.54849357
 31
0.0
  0
LINE
  5
19B
100
AcDbEntity
  8
Titelblatt
 62
     1
370
    -2
100
AcDbLine
 10
14312.33175856
 20
5227.54709357
 30
0.0
 11
14312.33315856
 21
5227.54849357
 31
0.0
  0
ENDBLK
  5
19C
100
AcDbEntity
100
AcDbBlockEnd
  0
BLOCK
  5
19D
100
AcDbEntity
  8
Titelblatt
100
AcDbBlockBegin
  2
*D11
 70
     1
 10
0.0
 20
0.0
 30
0.0
  3
*D11
  1

  4
Cadwork dimension
  0
TEXT
  5
19E
100
AcDbEntity
  8
Titelblatt
 62
     1
370
    18
100
AcDbText
 10
14312.42279189
 20
5227.54879357
 30
0.0
 40
0.0025
  1
18.40
  7
ARIAL
 50
0.0
 41
0.8
 51
0.0
100
AcDbText
  0
LINE
  5
19F
100
AcDbEntity
  8
Titelblatt
 62
     1
370
    -2
100
AcDbLine
 10
14312.33245856
 20
5227.54919357
 30
0.0
 11
14312.33245856
 21
5227.53779357
 31
0.0
  0
LINE
  5
1A0
100
AcDbEntity
  8
Titelblatt
 62
     1
370
    -2
100
AcDbLine
 10
14312.51645856
 20
5227.54919357
 30
0.0
 11
14312.51645856
 21
5227.53779357
 31
0.0
  0
LINE
  5
1A1
100
AcDbEntity
  8
Titelblatt
 62
     1
370
    -2
100
AcDbLine
 10
14312.33105856
 20
5227.54779357
 30
0.0
 11
14312.51785856
 21
5227.54779357
 31
0.0
  0
LINE
  5
1A2
100
AcDbEntity
  8
Titelblatt
 62
     1
370
    -2
100
AcDbLine
 10
14312.33175856
 20
5227.54709357
 30
0.0
 11
14312.33315856
 21
5227.54849357
 31
0.0
  0
LINE
  5
1A3
100
AcDbEntity
  8
Titelblatt
 62
     1
370
    -2
100
AcDbLine
 10
14312.51575856
 20
5227.54709357
 30
0.0
 11
14312.51715856
 21
5227.54849357
 31
0.0
  0
ENDBLK
  5
1A4
100
AcDbEntity
100
AcDbBlockEnd
  0
BLOCK
  5
1A5
100
AcDbEntity
  8
Titelblatt
100
AcDbBlockBegin
  2
*D12
 70
     1
 10
0.0
 20
0.0
 30
0.0
  3
*D12
  1

  4
Cadwork dimension
  0
TEXT
  5
1A6
100
AcDbEntity
  8
Titelblatt
 62
     1
370
    18
100
AcDbText
 10
14312.51712661
 20
5227.54879357
 30
0.0
 40
0.0025
  1
0.80
  7
ARIAL
 50
0.0
 41
0.8
 51
0.0
100
AcDbText
  0
LINE
  5
1A7
100
AcDbEntity
  8
Titelblatt
 62
     1
370
    -2
100
AcDbLine
 10
14312.51645856
 20
5227.54919357
 30
0.0
 11
14312.51645856
 21
5227.53779357
 31
0.0
  0
LINE
  5
1A8
100
AcDbEntity
  8
Titelblatt
 62
     1
370
    -2
100
AcDbLine
 10
14312.52446132
 20
5227.54919357
 30
0.0
 11
14312.52446132
 21
5227.53779357
 31
0.0
  0
LINE
  5
1A9
100
AcDbEntity
  8
Titelblatt
 62
     1
370
    -2
100
AcDbLine
 10
14312.51505856
 20
5227.54779357
 30
0.0
 11
14312.52586132
 21
5227.54779357
 31
0.0
  0
LINE
  5
1AA
100
AcDbEntity
  8
Titelblatt
 62
     1
370
    -2
100
AcDbLine
 10
14312.51575856
 20
5227.54709357
 30
0.0
 11
14312.51715856
 21
5227.54849357
 31
0.0
  0
LINE
  5
1AB
100
AcDbEntity
  8
Titelblatt
 62
     1
370
    -2
100
AcDbLine
 10
14312.52376132
 20
5227.54709357
 30
0.0
 11
14312.52516132
 21
5227.54849357
 31
0.0
  0
ENDBLK
  5
1AC
100
AcDbEntity
100
AcDbBlockEnd
  0
BLOCK
  5
1AD
100
AcDbEntity
  8
Titelblatt
100
AcDbBlockBegin
  2
*D13
 70
     1
 10
0.0
 20
0.0
 30
0.0
  3
*D13
  1

  4
Cadwork dimension
  0
TEXT
  5
1AE
100
AcDbEntity
  8
Titelblatt
 62
     1
370
    18
100
AcDbText
 10
14312.40619261
 20
5227.74177166
 30
0.0
 40
0.0025
  1
0.90
  7
ARIAL
 50
89.9999975
 41
0.8
 51
0.0
100
AcDbText
  0
LINE
  5
1AF
100
AcDbEntity
  8
Titelblatt
 62
     1
370
    -2
100
AcDbLine
 10
14312.40859261
 20
5227.73999267
 30
0.0
 11
14312.39719261
 21
5227.73999267
 31
0.0
  0
LINE
  5
1B0
100
AcDbEntity
  8
Titelblatt
 62
     1
370
    -2
100
AcDbLine
 10
14312.40859261
 20
5227.74912369
 30
0.0
 11
14312.39719261
 21
5227.74912369
 31
0.0
  0
LINE
  5
1B1
100
AcDbEntity
  8
Titelblatt
 62
     1
370
    -2
100
AcDbLine
 10
14312.40719261
 20
5227.73859267
 30
0.0
 11
14312.40719261
 21
5227.75052369
 31
0.0
  0
LINE
  5
1B2
100
AcDbEntity
  8
Titelblatt
 62
     1
370
    -2
100
AcDbLine
 10
14312.40789261
 20
5227.73929267
 30
0.0
 11
14312.40649261
 21
5227.74069267
 31
0.0
  0
LINE
  5
1B3
100
AcDbEntity
  8
Titelblatt
 62
     1
370
    -2
100
AcDbLine
 10
14312.40789261
 20
5227.74842369
 30
0.0
 11
14312.40649261
 21
5227.74982369
 31
0.0
  0
ENDBLK
  5
1B4
100
AcDbEntity
100
AcDbBlockEnd
  0
BLOCK
  5
1B5
100
AcDbEntity
  8
Titelblatt
100
AcDbBlockBegin
  2
*D14
 70
     1
 10
0.0
 20
0.0
 30
0.0
  3
*D14
  1

  4
Cadwork dimension
  0
TEXT
  5
1B6
100
AcDbEntity
  8
Titelblatt
 62
     1
370
    18
100
AcDbText
 10
14312.32426084
 20
5227.71422313
 30
0.0
 40
0.0025
  1
1.00
  7
ARIAL
 50
0.0
 41
0.8
 51
0.0
100
AcDbText
  0
LINE
  5
1B7
100
AcDbEntity
  8
Titelblatt
 62
     1
370
    -2
100
AcDbLine
 10
14312.32245856
 20
5227.71182313
 30
0.0
 11
14312.32245856
 21
5227.72497651
 31
0.0
  0
LINE
  5
1B8
100
AcDbEntity
  8
Titelblatt
 62
     1
370
    -2
100
AcDbLine
 10
14312.33245856
 20
5227.71182313
 30
0.0
 11
14312.33245856
 21
5227.72497651
 31
0.0
  0
LINE
  5
1B9
100
AcDbEntity
  8
Titelblatt
 62
     1
370
    -2
100
AcDbLine
 10
14312.32105856
 20
5227.71322313
 30
0.0
 11
14312.33385856
 21
5227.71322313
 31
0.0
  0
LINE
  5
1BA
100
AcDbEntity
  8
Titelblatt
 62
     1
370
    -2
100
AcDbLine
 10
14312.32175856
 20
5227.71252313
 30
0.0
 11
14312.32315856
 21
5227.71392313
 31
0.0
  0
LINE
  5
1BB
100
AcDbEntity
  8
Titelblatt
 62
     1
370
    -2
100
AcDbLine
 10
14312.33175856
 20
5227.71252313
 30
0.0
 11
14312.33315856
 21
5227.71392313
 31
0.0
  0
ENDBLK
  5
1BC
100
AcDbEntity
100
AcDbBlockEnd
  0
BLOCK
  5
1BD
100
AcDbEntity
  8
Titelblatt
100
AcDbBlockBegin
  2
*D15
 70
     1
 10
0.0
 20
0.0
 30
0.0
  3
*D15
  1

  4
Cadwork dimension
  0
TEXT
  5
1BE
100
AcDbEntity
  8
Titelblatt
 62
     1
370
    18
100
AcDbText
 10
14312.39211806
 20
5227.71422313
 30
0.0
 40
0.0025
  1
12.50
  7
ARIAL
 50
0.0
 41
0.8
 51
0.0
100
AcDbText
  0
LINE
  5
1BF
100
AcDbEntity
  8
Titelblatt
 62
     1
370
    -2
100
AcDbLine
 10
14312.33245856
 20
5227.71182313
 30
0.0
 11
14312.33245856
 21
5227.72497651
 31
0.0
  0
LINE
  5
1C0
100
AcDbEntity
  8
Titelblatt
 62
     1
370
    -2
100
AcDbLine
 10
14312.45604423
 20
5227.71182313
 30
0.0
 11
14312.45604423
 21
5227.72497651
 31
0.0
  0
LINE
  5
1C1
100
AcDbEntity
  8
Titelblatt
 62
     1
370
    -2
100
AcDbLine
 10
14312.33105856
 20
5227.71322313
 30
0.0
 11
14312.45744423
 21
5227.71322313
 31
0.0
  0
LINE
  5
1C2
100
AcDbEntity
  8
Titelblatt
 62
     1
370
    -2
100
AcDbLine
 10
14312.33175856
 20
5227.71252313
 30
0.0
 11
14312.33315856
 21
5227.71392313
 31
0.0
  0
LINE
  5
1C3
100
AcDbEntity
  8
Titelblatt
 62
     1
370
    -2
100
AcDbLine
 10
14312.45534423
 20
5227.71252313
 30
0.0
 11
14312.45674423
 21
5227.71392313
 31
0.0
  0
ENDBLK
  5
1C4
100
AcDbEntity
100
AcDbBlockEnd
  0
BLOCK
  5
1C5
100
AcDbEntity
  8
Titelblatt
100
AcDbBlockBegin
  2
*D16
 70
     1
 10
0.0
 20
0.0
 30
0.0
  3
*D16
  1

  4
Cadwork dimension
  0
TEXT
  5
1C6
100
AcDbEntity
  8
Titelblatt
 62
     1
370
    18
100
AcDbText
 10
14312.48241806
 20
5227.71422313
 30
0.0
 40
0.0025
  1
5.40
  7
ARIAL
 50
0.0
 41
0.8
 51
0.0
100
AcDbText
  0
LINE
  5
1C7
100
AcDbEntity
  8
Titelblatt
 62
     1
370
    -2
100
AcDbLine
 10
14312.45604423
 20
5227.71182313
 30
0.0
 11
14312.45604423
 21
5227.72497651
 31
0.0
  0
LINE
  5
1C8
100
AcDbEntity
  8
Titelblatt
 62
     1
370
    -2
100
AcDbLine
 10
14312.51145856
 20
5227.71182313
 30
0.0
 11
14312.51145856
 21
5227.72497651
 31
0.0
  0
LINE
  5
1C9
100
AcDbEntity
  8
Titelblatt
 62
     1
370
    -2
100
AcDbLine
 10
14312.45464423
 20
5227.71322313
 30
0.0
 11
14312.51285856
 21
5227.71322313
 31
0.0
  0
LINE
  5
1CA
100
AcDbEntity
  8
Titelblatt
 62
     1
370
    -2
100
AcDbLine
 10
14312.45534423
 20
5227.71252313
 30
0.0
 11
14312.45674423
 21
5227.71392313
 31
0.0
  0
LINE
  5
1CB
100
AcDbEntity
  8
Titelblatt
 62
     1
370
    -2
100
AcDbLine
 10
14312.51075856
 20
5227.71252313
 30
0.0
 11
14312.51215856
 21
5227.71392313
 31
0.0
  0
ENDBLK
  5
1CC
100
AcDbEntity
100
AcDbBlockEnd
  0
BLOCK
  5
1CD
100
AcDbEntity
  8
Titelblatt
100
AcDbBlockBegin
  2
*D17
 70
     1
 10
0.0
 20
0.0
 30
0.0
  3
*D17
  1

  4
Cadwork dimension
  0
TEXT
  5
1CE
100
AcDbEntity
  8
Titelblatt
 62
     1
370
    18
100
AcDbText
 10
14312.50490855
 20
5227.71422313
 30
0.0
 40
0.0025
  1
0.50
  7
ARIAL
 50
0.0
 41
0.8
 51
0.0
100
AcDbText
  0
LINE
  5
1CF
100
AcDbEntity
  8
Titelblatt
 62
     1
370
    -2
100
AcDbLine
 10
14312.51145856
 20
5227.71182313
 30
0.0
 11
14312.51145856
 21
5227.72497651
 31
0.0
  0
LINE
  5
1D0
100
AcDbEntity
  8
Titelblatt
 62
     1
370
    -2
100
AcDbLine
 10
14312.51645856
 20
5227.71182313
 30
0.0
 11
14312.51645856
 21
5227.72497651
 31
0.0
  0
LINE
  5
1D1
100
AcDbEntity
  8
Titelblatt
 62
     1
370
    -2
100
AcDbLine
 10
14312.51005856
 20
5227.71322313
 30
0.0
 11
14312.51785856
 21
5227.71322313
 31
0.0
  0
LINE
  5
1D2
100
AcDbEntity
  8
Titelblatt
 62
     1
370
    -2
100
AcDbLine
 10
14312.51075856
 20
5227.71252313
 30
0.0
 11
14312.51215856
 21
5227.71392313
 31
0.0
  0
LINE
  5
1D3
100
AcDbEntity
  8
Titelblatt
 62
     1
370
    -2
100
AcDbLine
 10
14312.51575856
 20
5227.71252313
 30
0.0
 11
14312.51715856
 21
5227.71392313
 31
0.0
  0
ENDBLK
  5
1D4
100
AcDbEntity
100
AcDbBlockEnd
  0
BLOCK
  5
1D5
100
AcDbEntity
  8
Titelblatt
100
AcDbBlockBegin
  2
*D18
 70
     1
 10
0.0
 20
0.0
 30
0.0
  3
*D18
  1

  4
Cadwork dimension
  0
TEXT
  5
1D6
100
AcDbEntity
  8
Titelblatt
 62
     1
370
    18
100
AcDbText
 10
14312.47966066
 20
5227.75084901
 30
0.0
 40
0.0025
  1
0.50
  7
ARIAL
 50
89.9999975
 41
0.8
 51
0.0
100
AcDbText
  0
LINE
  5
1D7
100
AcDbEntity
  8
Titelblatt
 62
     1
370
    -2
100
AcDbLine
 10
14312.47926066
 20
5227.74396932
 30
0.0
 11
14312.49321831
 21
5227.74396932
 31
0.0
  0
LINE
  5
1D8
100
AcDbEntity
  8
Titelblatt
 62
     1
370
    -2
100
AcDbLine
 10
14312.47926066
 20
5227.74912369
 30
0.0
 11
14312.47066066
 21
5227.74912369
 31
0.0
  0
LINE
  5
1D9
100
AcDbEntity
  8
Titelblatt
 62
     1
370
    -2
100
AcDbLine
 10
14312.48066066
 20
5227.74256932
 30
0.0
 11
14312.48066066
 21
5227.75052369
 31
0.0
  0
LINE
  5
1DA
100
AcDbEntity
  8
Titelblatt
 62
     1
370
    -2
100
AcDbLine
 10
14312.48136066
 20
5227.74326932
 30
0.0
 11
14312.47996066
 21
5227.74466932
 31
0.0
  0
LINE
  5
1DB
100
AcDbEntity
  8
Titelblatt
 62
     1
370
    -2
100
AcDbLine
 10
14312.48136066
 20
5227.74842369
 30
0.0
 11
14312.47996066
 21
5227.74982369
 31
0.0
  0
ENDBLK
  5
1DC
100
AcDbEntity
100
AcDbBlockEnd
  0
BLOCK
  5
1DD
100
AcDbEntity
  8
Titelblatt
100
AcDbBlockBegin
  2
*D19
 70
     1
 10
0.0
 20
0.0
 30
0.0
  3
*D19
  1

  4
Cadwork dimension
  0
TEXT
  5
1DE
100
AcDbEntity
  8
Titelblatt
 62
     1
370
    18
100
AcDbText
 10
14312.46938057
 20
5227.57609036
 30
0.0
 40
0.0025
  1
3.50
  7
ARIAL
 50
89.9999975
 41
0.8
 51
0.0
100
AcDbText
  0
LINE
  5
1DF
100
AcDbEntity
  8
Titelblatt
 62
     1
370
    -2
100
AcDbLine
 10
14312.47178057
 20
5227.55912369
 30
0.0
 11
14312.39636952
 21
5227.55912369
 31
0.0
  0
LINE
  5
1E0
100
AcDbEntity
  8
Titelblatt
 62
     1
370
    -2
100
AcDbLine
 10
14312.47178057
 20
5227.59412369
 30
0.0
 11
14312.42424837
 21
5227.59412369
 31
0.0
  0
LINE
  5
1E1
100
AcDbEntity
  8
Titelblatt
 62
     1
370
    -2
100
AcDbLine
 10
14312.47038057
 20
5227.55772369
 30
0.0
 11
14312.47038057
 21
5227.59552369
 31
0.0
  0
LINE
  5
1E2
100
AcDbEntity
  8
Titelblatt
 62
     1
370
    -2
100
AcDbLine
 10
14312.47108057
 20
5227.55842369
 30
0.0
 11
14312.46968057
 21
5227.55982369
 31
0.0
  0
LINE
  5
1E3
100
AcDbEntity
  8
Titelblatt
 62
     1
370
    -2
100
AcDbLine
 10
14312.47108057
 20
5227.59342369
 30
0.0
 11
14312.46968057
 21
5227.59482369
 31
0.0
  0
ENDBLK
  5
1E4
100
AcDbEntity
100
AcDbBlockEnd
  0
BLOCK
  5
1E5
100
AcDbEntity
  8
Titelblatt
100
AcDbBlockBegin
  2
*D20
 70
     1
 10
0.0
 20
0.0
 30
0.0
  3
*D20
  1

  4
Cadwork dimension
  0
TEXT
  5
1E6
100
AcDbEntity
  8
Titelblatt
 62
     1
370
    18
100
AcDbText
 10
14312.47966066
 20
5227.73477504
 30
0.0
 40
0.0025
  1
2.50
  7
ARIAL
 50
89.9999975
 41
0.8
 51
0.0
100
AcDbText
  0
LINE
  5
1E7
100
AcDbEntity
  8
Titelblatt
 62
     1
370
    -2
100
AcDbLine
 10
14312.48206066
 20
5227.71997651
 30
0.0
 11
14312.47066066
 21
5227.71997651
 31
0.0
  0
LINE
  5
1E8
100
AcDbEntity
  8
Titelblatt
 62
     1
370
    -2
100
AcDbLine
 10
14312.48206066
 20
5227.74396932
 30
0.0
 11
14312.49321831
 21
5227.74396932
 31
0.0
  0
LINE
  5
1E9
100
AcDbEntity
  8
Titelblatt
 62
     1
370
    -2
100
AcDbLine
 10
14312.48066066
 20
5227.71857651
 30
0.0
 11
14312.48066066
 21
5227.74536932
 31
0.0
  0
LINE
  5
1EA
100
AcDbEntity
  8
Titelblatt
 62
     1
370
    -2
100
AcDbLine
 10
14312.48136066
 20
5227.71927651
 30
0.0
 11
14312.47996066
 21
5227.72067651
 31
0.0
  0
LINE
  5
1EB
100
AcDbEntity
  8
Titelblatt
 62
     1
370
    -2
100
AcDbLine
 10
14312.48136066
 20
5227.74326932
 30
0.0
 11
14312.47996066
 21
5227.74466932
 31
0.0
  0
ENDBLK
  5
1EC
100
AcDbEntity
100
AcDbBlockEnd
  0
BLOCK
  5
1ED
100
AcDbEntity
  8
Titelblatt
100
AcDbBlockBegin
  2
*D21
 70
     1
 10
0.0
 20
0.0
 30
0.0
  3
*D21
  1

  4
Cadwork dimension
  0
TEXT
  5
1EE
100
AcDbEntity
  8
Titelblatt
 62
     1
370
    18
100
AcDbText
 10
14312.36627166
 20
5227.75084901
 30
0.0
 40
0.0025
  1
0.50
  7
ARIAL
 50
89.9999975
 41
0.8
 51
0.0
100
AcDbText
  0
LINE
  5
1EF
100
AcDbEntity
  8
Titelblatt
 62
     1
370
    -2
100
AcDbLine
 10
14312.36867166
 20
5227.74396932
 30
0.0
 11
14312.35727166
 21
5227.74396932
 31
0.0
  0
LINE
  5
1F0
100
AcDbEntity
  8
Titelblatt
 62
     1
370
    -2
100
AcDbLine
 10
14312.36867166
 20
5227.74912369
 30
0.0
 11
14312.35727166
 21
5227.74912369
 31
0.0
  0
LINE
  5
1F1
100
AcDbEntity
  8
Titelblatt
 62
     1
370
    -2
100
AcDbLine
 10
14312.36727166
 20
5227.74256932
 30
0.0
 11
14312.36727166
 21
5227.75052369
 31
0.0
  0
LINE
  5
1F2
100
AcDbEntity
  8
Titelblatt
 62
     1
370
    -2
100
AcDbLine
 10
14312.36797166
 20
5227.74326932
 30
0.0
 11
14312.36657166
 21
5227.74466932
 31
0.0
  0
LINE
  5
1F3
100
AcDbEntity
  8
Titelblatt
 62
     1
370
    -2
100
AcDbLine
 10
14312.36797166
 20
5227.74842369
 30
0.0
 11
14312.36657166
 21
5227.74982369
 31
0.0
  0
ENDBLK
  5
1F4
100
AcDbEntity
100
AcDbBlockEnd
  0
BLOCK
  5
1F5
100
AcDbEntity
  8
Titelblatt
100
AcDbBlockBegin
  2
*D22
 70
     1
 10
0.0
 20
0.0
 30
0.0
  3
*D22
  1

  4
Cadwork dimension
  0
TEXT
  5
1F6
100
AcDbEntity
  8
Titelblatt
 62
     1
370
    18
100
AcDbText
 10
14312.36627166
 20
5227.73152547
 30
0.0
 40
0.0025
  1
2.50
  7
ARIAL
 50
89.9999975
 41
0.8
 51
0.0
100
AcDbText
  0
LINE
  5
1F7
100
AcDbEntity
  8
Titelblatt
 62
     1
370
    -2
100
AcDbLine
 10
14312.36867166
 20
5227.71997651
 30
0.0
 11
14312.35727166
 21
5227.71997651
 31
0.0
  0
LINE
  5
1F8
100
AcDbEntity
  8
Titelblatt
 62
     1
370
    -2
100
AcDbLine
 10
14312.36867166
 20
5227.74396932
 30
0.0
 11
14312.35727166
 21
5227.74396932
 31
0.0
  0
LINE
  5
1F9
100
AcDbEntity
  8
Titelblatt
 62
     1
370
    -2
100
AcDbLine
 10
14312.36727166
 20
5227.71857651
 30
0.0
 11
14312.36727166
 21
5227.74536932
 31
0.0
  0
LINE
  5
1FA
100
AcDbEntity
  8
Titelblatt
 62
     1
370
    -2
100
AcDbLine
 10
14312.36797166
 20
5227.71927651
 30
0.0
 11
14312.36657166
 21
5227.72067651
 31
0.0
  0
LINE
  5
1FB
100
AcDbEntity
  8
Titelblatt
 62
     1
370
    -2
100
AcDbLine
 10
14312.36797166
 20
5227.74326932
 30
0.0
 11
14312.36657166
 21
5227.74466932
 31
0.0
  0
ENDBLK
  5
1FC
100
AcDbEntity
100
AcDbBlockEnd
  0
BLOCK
  5
1FD
100
AcDbEntity
  8
LAYER_1
100
AcDbBlockBegin
  2
BAV203
 70
     0
 10
0.0
 20
0.0
 30
0.0
  3
BAV203
  1

  4
Cadwork node ref
  0
LWPOLYLINE
  5
1FE
100
AcDbEntity
  8
LAYER_1
 62
     4
  6
CONTINUOUS
370
    -3
100
AcDbPolyline
 90
        6
 70
     0
 43
0.0
 10
-0.01
 20
-0.0005
 10
-0.008
 20
-0.001
 42
0.218546
 10
-0.004
 20
-0.00025
 42
-0.317945
 10
0.004
 20
-0.00025
 42
0.129163
 10
0.006
 20
-0.001
 42
0.05097699
 10
0.0076
 20
-0.001
  0
LINE
  5
1FF
100
AcDbEntity
  8
LAYER_1
 62
     4
  6
CONTINUOUS
370
    -3
100
AcDbLine
 10
0.01
 20
-0.001
 30
0.0
 11
0.006
 21
0.0005
 31
0.0
  0
LINE
  5
200
100
AcDbEntity
  8
LAYER_1
 62
     4
  6
CONTINUOUS
370
    -3
100
AcDbLine
 10
0.006
 20
0.0005
 30
0.0
 11
0.006
 21
-0.0025
 31
0.0
  0
LINE
  5
201
100
AcDbEntity
  8
LAYER_1
 62
     4
  6
CONTINUOUS
370
    -3
100
AcDbLine
 10
0.006
 20
-0.0025
 30
0.0
 11
0.01
 21
-0.001
 31
0.0
  0
LWPOLYLINE
  5
202
100
AcDbEntity
  8
LAYER_1
 62
     4
  6
CONTINUOUS
370
    -3
100
AcDbPolyline
 90
        5
 70
     0
 43
0.0
 10
0.01
 20
-0.001
 10
0.006
 20
0.0005
 10
0.006
 20
-0.0025
 10
0.01
 20
-0.001
 10
0.01
 20
-0.001
  0
ENDBLK
  5
203
100
AcDbEntity
100
AcDbBlockEnd
  0
ENDSEC
  0
SECTION
  2
ENTITIES
  0
LWPOLYLINE
  5
204
100
AcDbEntity
  8
Titelblatt
 62
     7
  6
CONTINUOUS
370
    -3
100
AcDbPolyline
 90
        4
 70
     1
 43
0.0
 10
14312.31445856
 20
5227.75712369
 10
14312.31445856
 20
5227.46012369
 10
14312.52446132
 20
5227.46012369
 10
14312.52446132
 20
5227.75712369
  0
LWPOLYLINE
  5
205
100
AcDbEntity
  8
Titelblatt
 62
     7
  6
CONTINUOUS
370
    -3
100
AcDbPolyline
 90
        4
 70
     1
 43
0.0
 10
14312.52446132
 20
5227.46012369
 10
14312.52446132
 20
5227.75712369
 10
14312.31445856
 20
5227.75712369
 10
14312.31445856
 20
5227.46012369
  0
TEXT
  5
206
100
AcDbEntity
  8
Titelblatt
 62
     7
370
    35
100
AcDbText
 10
14312.33245856
 20
5227.51679533
 30
0.0
 40
0.00275
  1
PROJEKTVERFASSER :
  7
ARIAL
 50
0.0
 41
1.0
 51
0.0
100
AcDbText
  0
TEXT
  5
207
100
AcDbEntity
  8
Titelblatt
 62
     7
370
    35
100
AcDbText
 10
14312.43769785
 20
5227.51559244
 30
0.0
 40
0.004
  1
PLAN NR.
  7
ARIAL
 50
0.0
 41
1.0
 51
0.0
100
AcDbText
  0
TEXT
  5
208
100
AcDbEntity
  8
Titelblatt
 62
     7
370
    18
100
AcDbText
 10
14312.43785421
 20
5227.51013647
 30
0.0
 40
0.00225
  1
FORMAT :
  7
ARIAL
 50
0.0
 41
1.0
 51
0.0
100
AcDbText
  0
TEXT
  5
209
100
AcDbEntity
  8
Titelblatt
 62
     7
370
    18
100
AcDbText
 10
14312.43774457
 20
5227.47863003
 30
0.0
 40
0.0025
  1
AUSFERTIGUNG  FÜR :
  7
ARIAL
 50
8.9750903076333E-07
 41
1.0
 51
0.0
100
AcDbText
  0
LINE
  5
20A
100
AcDbEntity
  8
Titelblatt
  6
CONTINUOUS
370
    -3
100
AcDbLine
 10
14312.43645856
 20
5227.507581
 30
0.0
 11
14312.51634079
 21
5227.507581
 31
0.0
  0
LINE
  5
20B
100
AcDbEntity
  8
Titelblatt
  6
CONTINUOUS
370
    -3
100
AcDbLine
 10
14312.43645856
 20
5227.50266436
 30
0.0
 11
14312.51634079
 21
5227.50266436
 31
0.0
  0
LINE
  5
20C
100
AcDbEntity
  8
Titelblatt
  6
CONTINUOUS
370
    -3
100
AcDbLine
 10
14312.43645856
 20
5227.49774771
 30
0.0
 11
14312.51634079
 21
5227.49774771
 31
0.0
  0
LINE
  5
20D
100
AcDbEntity
  8
Titelblatt
  6
CONTINUOUS
370
    -3
100
AcDbLine
 10
14312.43645856
 20
5227.48792611
 30
0.0
 11
14312.51634079
 21
5227.48792611
 31
0.0
  0
LINE
  5
20E
100
AcDbEntity
  8
Titelblatt
 62
     7
  6
CONTINUOUS
370
    -3
100
AcDbLine
 10
14312.45146679
 20
5227.507581
 30
0.0
 11
14312.45146679
 21
5227.48300946
 31
0.0
  0
LINE
  5
20F
100
AcDbEntity
  8
Titelblatt
 62
     7
  6
CONTINUOUS
370
    -3
100
AcDbLine
 10
14312.46718603
 20
5227.507581
 30
0.0
 11
14312.46718603
 21
5227.48300946
 31
0.0
  0
LINE
  5
210
100
AcDbEntity
  8
Titelblatt
 62
     7
  6
CONTINUOUS
370
    -3
100
AcDbLine
 10
14312.48291696
 20
5227.507581
 30
0.0
 11
14312.48291696
 21
5227.48300946
 31
0.0
  0
LINE
  5
211
100
AcDbEntity
  8
Titelblatt
 62
     7
  6
CONTINUOUS
370
    -3
100
AcDbLine
 10
14312.49864788
 20
5227.507581
 30
0.0
 11
14312.49864788
 21
5227.48300946
 31
0.0
  0
TEXT
  5
212
100
AcDbEntity
  8
Titelblatt
 62
     7
370
    18
100
AcDbText
 10
14312.43967152
 20
5227.50426431
 30
0.0
 40
0.0025
  1
Aend.
  7
ARIAL
 50
0.0
 41
1.0
 51
0.0
100
AcDbText
  0
TEXT
  5
213
100
AcDbEntity
  8
Titelblatt
 62
     7
370
    18
100
AcDbText
 10
14312.45539076
 20
5227.50426431
 30
0.0
 40
0.0025
  1
Gez.
  7
ARIAL
 50
0.0
 41
1.0
 51
0.0
100
AcDbText
  0
TEXT
  5
214
100
AcDbEntity
  8
Titelblatt
 62
     7
370
    18
100
AcDbText
 10
14312.48587161
 20
5227.50426431
 30
0.0
 40
0.0025
  1
Kontr.
  7
ARIAL
 50
0.0
 41
1.0
 51
0.0
100
AcDbText
  0
TEXT
  5
215
100
AcDbEntity
  8
Titelblatt
 62
     7
370
    18
100
AcDbText
 10
14312.50227989
 20
5227.50411249
 30
0.0
 40
0.0025
  1
Datum
  7
ARIAL
 50
3.3868182656037E-06
 41
1.0
 51
0.0
100
AcDbText
  0
LINE
  5
216
100
AcDbEntity
  8
Titelblatt
 62
     7
  6
CONTINUOUS
370
    -3
100
AcDbLine
 10
14312.32245856
 20
5227.49512005
 30
0.0
 11
14312.43645856
 21
5227.49512005
 31
0.0
  0
TEXT
  5
217
100
AcDbEntity
  8
Titelblatt
 62
     7
370
    35
100
AcDbText
 10
14312.33192135
 20
5227.48870856
 30
0.0
 40
0.00275
  1
GENEHMIGUNG :
  7
ARIAL
 50
0.0
 41
1.0
 51
0.0
100
AcDbText
  0
TEXT
  5
218
100
AcDbEntity
  8
Titelblatt
 62
     7
370
    35
100
AcDbText
 10
14312.33189085
 20
5227.48266561
 30
0.0
 40
0.003
  1
Kantonales Tiefbauamt
  7
ARIAL
 50
0.0
 41
1.0
 51
0.0
100
AcDbText
  0
TEXT
  5
219
100
AcDbEntity
  8
Titelblatt
 62
     7
370
    18
100
AcDbText
 10
14312.33232295
 20
5227.47720008
 30
0.0
 40
0.003
  1
Der Kantonsingenieur:
  7
ARIAL
 50
0.0
 41
1.0
 51
0.0
100
AcDbText
  0
LINE
  5
21A
100
AcDbEntity
  8
Titelblatt
  6
CONTINUOUS
370
    -3
100
AcDbLine
 10
14312.43645856
 20
5227.49283107
 30
0.0
 11
14312.51634079
 21
5227.49283107
 31
0.0
  0
LINE
  5
21B
100
AcDbEntity
  8
Titelblatt
  6
CONTINUOUS
370
    -3
100
AcDbLine
 10
14312.43645856
 20
5227.48300946
 30
0.0
 11
14312.51634079
 21
5227.48300946
 31
0.0
  0
TEXT
  5
21C
100
AcDbEntity
  8
Titelblatt
 62
     7
370
    18
100
AcDbText
 10
14312.47093483
 20
5227.50418256
 30
0.0
 40
0.0025
  1
Entw.
  7
ARIAL
 50
0.0
 41
1.0
 51
0.0
100
AcDbText
  0
LINE
  5
21D
100
AcDbEntity
  8
Titelblatt
 62
     7
  6
CONTINUOUS
370
    35
100
AcDbLine
 10
14312.32245856
 20
5227.52312369
 30
0.0
 11
14312.51675173
 21
5227.52312369
 31
0.0
  0
LINE
  5
21E
100
AcDbEntity
  8
Titelblatt
 62
     7
  6
CONTINUOUS
370
    -3
100
AcDbLine
 10
14312.43645856
 20
5227.52312369
 30
0.0
 11
14312.43645856
 21
5227.46812369
 31
0.0
  0
TEXT
  5
21F
100
AcDbEntity
  8
Titelblatt
 62
     7
370
    35
100
AcDbText
 10
14312.33245856
 20
5227.73999267
 30
0.0
 40
0.004
  1
Kantonales Tiefbauamt
  7
ARIAL
 50
0.0
 41
1.0
 51
0.0
100
AcDbText
  0
TEXT
  5
220
100
AcDbEntity
  8
Titelblatt
 62
     7
370
    18
100
AcDbText
 10
14312.33245856
 20
5227.69473058
 30
0.0
 40
0.01
  1
ERLEN / AMRISWIL
  7
ARIAL
 50
0.0
 41
1.0
 51
0.0
100
AcDbText
  0
TEXT
  5
221
100
AcDbEntity
  8
Titelblatt
 62
     7
370
    18
100
AcDbText
 10
14312.33245856
 20
5227.66912369
 30
0.0
 40
0.007
  1
KANTONSSTRASSE
  7
ARIAL
 50
0.0
 41
1.0
 51
0.0
100
AcDbText
  0
TEXT
  5
222
100
AcDbEntity
  8
Titelblatt
 62
     7
370
    18
100
AcDbText
 10
14312.33245856
 20
5227.65512369
 30
0.0
 40
0.007
  1
ERLEN - OBERACH
  7
ARIAL
 50
0.0
 41
1.0
 51
0.0
100
AcDbText
  0
TEXT
  5
223
100
AcDbEntity
  8
Titelblatt
 62
     7
370
    18
100
AcDbText
 10
14312.33245856
 20
5227.63312369
 30
0.0
 40
0.007
  1
Fahrbahnsanierung mit Radweg
  7
ARIAL
 50
0.0
 41
1.0
 51
0.0
100
AcDbText
  0
TEXT
  5
224
100
AcDbEntity
  8
Titelblatt
 62
     7
370
    18
100
AcDbText
 10
14312.33245856
 20
5227.59412369
 30
0.0
 40
0.007
  1
BAUPROJEKT 2016
  7
ARIAL
 50
0.0
 41
1.0
 51
0.0
100
AcDbText
  0
TEXT
  5
225
100
AcDbEntity
  8
Titelblatt
 62
     7
370
    18
100
AcDbText
 10
14312.33245856
 20
5227.55912369
 30
0.0
 40
0.007
  1
Situation 1:500
  7
ARIAL
 50
0.0
 41
1.0
 51
0.0
100
AcDbText
  0
LINE
  5
226
100
AcDbEntity
  8
Titelblatt
 62
     7
  6
CONTINUOUS
370
    -3
100
AcDbLine
 10
14312.32245856
 20
5227.53812369
 30
0.0
 11
14312.51645856
 21
5227.53812369
 31
0.0
  0
LINE
  5
227
100
AcDbEntity
  8
Titelblatt
 62
     7
  6
CONTINUOUS
370
    -3
100
AcDbLine
 10
14312.32245856
 20
5227.53212369
 30
0.0
 11
14312.51645856
 21
5227.53212369
 31
0.0
  0
LINE
  5
228
100
AcDbEntity
  8
Titelblatt
 62
     7
  6
CONTINUOUS
370
    -3
100
AcDbLine
 10
14312.38695856
 20
5227.53812369
 30
0.0
 11
14312.38695856
 21
5227.52312369
 31
0.0
  0
LINE
  5
229
100
AcDbEntity
  8
Titelblatt
 62
     7
  6
CONTINUOUS
370
    -3
100
AcDbLine
 10
14312.45195856
 20
5227.53812369
 30
0.0
 11
14312.45195856
 21
5227.52312369
 31
0.0
  0
TEXT
  5
22A
100
AcDbEntity
  8
Titelblatt
 62
     7
370
    18
100
AcDbText
 10
14312.34445856
 20
5227.53412369
 30
0.0
 40
0.0025
  1
Strassen Nr.
  7
ARIAL
 50
0.0
 41
1.0
 51
0.0
100
AcDbText
  0
TEXT
  5
22B
100
AcDbEntity
  8
Titelblatt
 62
     7
370
    18
100
AcDbText
 10
14312.47644355
 20
5227.53412369
 30
0.0
 40
0.0025
  1
Baustellen Nr.
  7
ARIAL
 50
0.0
 41
1.0
 51
0.0
100
AcDbText
  0
LWPOLYLINE
  5
22C
100
AcDbEntity
  8
Titelblatt
 62
     7
  6
DASHDOT
370
     5
100
AcDbPolyline
 90
        4
 70
     1
 43
0.0
 10
14312.45604423
 20
5227.72497651
 10
14312.51145856
 20
5227.72497651
 10
14312.51145856
 20
5227.74396932
 10
14312.45604423
 20
5227.74396932
  0
TEXT
  5
22D
100
AcDbEntity
  8
Titelblatt
 62
     7
370
    18
100
AcDbText
 10
14312.33245856
 20
5227.61912369
 30
0.0
 40
0.007
  1
in Engishofen
  7
ARIAL
 50
0.0
 41
1.0
 51
0.0
100
AcDbText
  0
TEXT
  5
22E
100
AcDbEntity
  8
Titelblatt
 62
     1
370
    18
100
AcDbText
 10
14312.47248304
 20
5227.6959365
 30
0.0
 40
0.003
  1
10 mm
  7
ARIAL
 50
0.0
 41
1.0
 51
0.0
100
AcDbText
  0
TEXT
  5
22F
100
AcDbEntity
  8
Titelblatt
 62
     1
370
    18
100
AcDbText
 10
14312.47248304
 20
5227.67017119
 30
0.0
 40
0.003
  1
  7 mm
  7
ARIAL
 50
0.0
 41
1.0
 51
0.0
100
AcDbText
  0
TEXT
  5
230
100
AcDbEntity
  8
Titelblatt
 62
     1
370
    18
100
AcDbText
 10
14312.47248304
 20
5227.65668466
 30
0.0
 40
0.003
  1
  7 mm
  7
ARIAL
 50
0.0
 41
1.0
 51
0.0
100
AcDbText
  0
TEXT
  5
231
100
AcDbEntity
  8
Titelblatt
 62
     1
370
    18
100
AcDbText
 10
14312.47248304
 20
5227.63434131
 30
0.0
 40
0.003
  1
  7 mm
  7
ARIAL
 50
0.0
 41
1.0
 51
0.0
100
AcDbText
  0
TEXT
  5
232
100
AcDbEntity
  8
Titelblatt
 62
     1
370
    18
100
AcDbText
 10
14312.47248304
 20
5227.62025091
 30
0.0
 40
0.003
  1
  7 mm
  7
ARIAL
 50
0.0
 41
1.0
 51
0.0
100
AcDbText
  0
TEXT
  5
233
100
AcDbEntity
  8
Titelblatt
 62
     1
370
    18
100
AcDbText
 10
14312.47248304
 20
5227.5950598
 30
0.0
 40
0.003
  1
  7 mm
  7
ARIAL
 50
0.0
 41
1.0
 51
0.0
100
AcDbText
  0
TEXT
  5
234
100
AcDbEntity
  8
Titelblatt
 62
     1
370
    18
100
AcDbText
 10
14312.47248304
 20
5227.56128756
 30
0.0
 40
0.003
  1
  7 mm
  7
ARIAL
 50
0.0
 41
1.0
 51
0.0
100
AcDbText
  0
TEXT
  5
235
100
AcDbEntity
  8
Titelblatt
 62
     1
370
    18
100
AcDbText
 10
14312.40988392
 20
5227.74119258
 30
0.0
 40
0.003
  1
Arial  4 mm
  7
ARIAL
 50
0.0
 41
1.0
 51
0.0
100
AcDbText
  0
TEXT
  5
236
100
AcDbEntity
  8
Titelblatt
 62
     1
370
    18
100
AcDbText
 10
14312.38879453
 20
5227.62128757
 30
0.0
 40
0.003
  1
 (wenn 2-zeiliger Text)
  7
ARIAL
 50
0.0
 41
1.0
 51
0.0
100
AcDbText
  0
TEXT
  5
237
100
AcDbEntity
  8
Titelblatt
 62
     7
370
    35
100
AcDbText
 10
14312.34698861
 20
5227.52623854
 30
0.0
 40
0.004
  1
K117
  7
ARIAL
 50
0.0
 41
1.0
 51
0.0
100
AcDbText
  0
LWPOLYLINE
  5
238
102
{ACAD_REACTORS
330
239
102
}
100
AcDbEntity
  8
Titelblatt
 62
   106
  6
CONTINUOUS
370
    -3
100
AcDbPolyline
 90
        4
 70
     1
 43
0.0
 10
14312.33245856
 20
5227.49800687
 10
14312.33245856
 20
5227.51499373
 10
14312.43216213
 20
5227.51499373
 10
14312.43216213
 20
5227.49800687
  0
HATCH
  5
239
100
AcDbEntity
  8
Titelblatt
 62
   106
  6
CONTINUOUS
100
AcDbHatch
 10
0.0
 20
0.0
 30
0.0
210
0.0
220
0.0
230
1.0
  2
SOLID
 70
     1
 71
     1
 91
        1
 92
        7
 72
     0
 73
     1
 93
        4
 10
14312.33245856
 20
5227.49800687
 10
14312.33245856
 20
5227.51499373
 10
14312.43216213
 20
5227.51499373
 10
14312.43216213
 20
5227.49800687
 97
        1
330
238
 75
     0
 76
     2
 47
0.775229
 98
        1
 10
0.0
 20
0.0
  0
TEXT
  5
23A
100
AcDbEntity
  8
Titelblatt
 62
     7
370
    35
100
AcDbText
 10
14312.33981106
 20
5227.50829468
 30
0.0
 40
0.003
  1
Ingenieurbüro
  7
ARIAL
 50
0.0
 41
1.0
 51
0.0
100
AcDbText
  0
TEXT
  5
23B
100
AcDbEntity
  8
Titelblatt
 62
     7
370
    35
100
AcDbText
 10
14312.33981106
 20
5227.50289468
 30
0.0
 40
0.003
  1
PLZ Ort
  7
ARIAL
 50
0.0
 41
1.0
 51
0.0
100
AcDbText
  0
LWPOLYLINE
  5
23C
100
AcDbEntity
  8
Titelblatt
  6
CONTINUOUS
370
    -3
100
AcDbPolyline
 90
        5
 70
     0
 43
0.0
 10
14312.32245856
 20
5227.74912369
 10
14312.51645856
 20
5227.74912369
 10
14312.51645856
 20
5227.46812369
 10
14312.32245856
 20
5227.46812369
 10
14312.32245856
 20
5227.74912369
  0
LINE
  5
23D
100
AcDbEntity
  8
Titelblatt
 62
     7
  6
CONTINUOUS
370
    -3
100
AcDbLine
 10
14312.32245856
 20
5227.71997651
 30
0.0
 11
14312.51645856
 21
5227.71997651
 31
0.0
  0
TEXT
  5
23E
100
AcDbEntity
  8
Titelblatt
 62
     1
370
    18
100
AcDbText
 10
14312.41221429
 20
5227.73348253
 30
0.0
 40
0.002
  1
Das Logo kann unter
  7
ARIAL
 50
0.0
 41
0.8
 51
0.0
100
AcDbText
  0
TEXT
  5
23F
100
AcDbEntity
  8
Titelblatt
 62
     1
370
    18
100
AcDbText
 10
14312.41221429
 20
5227.72898253
 30
0.0
 40
0.002
  1
www.bldz.tg.ch / Erscheinungsbild
  7
ARIAL
 50
0.0
 41
0.8
 51
0.0
100
AcDbText
  0
TEXT
  5
240
100
AcDbEntity
  8
Titelblatt
 62
     1
370
    18
100
AcDbText
 10
14312.41221429
 20
5227.72448253
 30
0.0
 40
0.002
  1
heruntergeladen werden
  7
ARIAL
 50
0.0
 41
0.8
 51
0.0
100
AcDbText
  0
LINE
  5
241
100
AcDbEntity
  8
Titelblatt
 62
     1
  6
CONTINUOUS
370
    -3
100
AcDbLine
 10
14312.40984424
 20
5227.72200648
 30
0.0
 11
14312.44739088
 21
5227.72200648
 31
0.0
  0
LWPOLYLINE
  5
242
100
AcDbEntity
  8
Titelblatt
 62
     1
  6
CONTINUOUS
370
    -3
100
AcDbPolyline
 90
        4
 70
     0
 43
0.0
 10
14312.44739088
 20
5227.72200648
 10
14312.44739088
 20
5227.7368505
 10
14312.40984424
 20
5227.7368505
 10
14312.40984424
 20
5227.72200648
  0
TEXT
  5
243
100
AcDbEntity
  8
Titelblatt
 62
     1
370
    18
100
AcDbText
 10
14312.40967832
 20
5227.7075585
 30
0.0
 40
0.003
  1
Schriftart = Arial
  7
ARIAL
 50
0.0
 41
1.0
 51
0.0
100
AcDbText
  0
TEXT
  5
244
100
AcDbEntity
  8
Titelblatt
 62
     7
370
    35
100
AcDbText
 10
14312.39889958
 20
5227.52623854
 30
0.0
 40
0.004
  1
BP 30- BP 44
  7
ARIAL
 50
0.0
 41
1.0
 51
0.0
100
AcDbText
  0
TEXT
  5
245
100
AcDbEntity
  8
Titelblatt
 62
     7
370
    18
100
AcDbText
 10
14312.41242029
 20
5227.53412369
 30
0.0
 40
0.0025
  1
RBBS
  7
ARIAL
 50
0.0
 41
1.0
 51
0.0
100
AcDbText
  0
TEXT
  5
246
100
AcDbEntity
  8
Titelblatt
 62
     7
370
    35
100
AcDbText
 10
14312.46970568
 20
5227.52623854
 30
0.0
 40
0.004
  1
4476-120
  7
ARIAL
 50
0.0
 41
1.0
 51
0.0
100
AcDbText
  0
INSERT
  5
247
100
AcDbEntity
  8
Titelblatt
 62
     0
370
    -3
100
AcDbBlockReference
  2
*D1
 10
0.0
 20
0.0
 30
0.0
  0
INSERT
  5
248
100
AcDbEntity
  8
Titelblatt
 62
     0
370
    -3
100
AcDbBlockReference
  2
*D2
 10
0.0
 20
0.0
 30
0.0
  0
INSERT
  5
249
100
AcDbEntity
  8
Titelblatt
 62
     0
370
    -3
100
AcDbBlockReference
  2
*D3
 10
0.0
 20
0.0
 30
0.0
  0
INSERT
  5
24A
100
AcDbEntity
  8
Titelblatt
 62
     0
370
    -3
100
AcDbBlockReference
  2
*D4
 10
0.0
 20
0.0
 30
0.0
  0
INSERT
  5
24B
100
AcDbEntity
  8
Titelblatt
 62
     0
370
    -3
100
AcDbBlockReference
  2
*D5
 10
0.0
 20
0.0
 30
0.0
  0
INSERT
  5
24C
100
AcDbEntity
  8
Titelblatt
 62
     0
370
    -3
100
AcDbBlockReference
  2
*D6
 10
0.0
 20
0.0
 30
0.0
  0
INSERT
  5
24D
100
AcDbEntity
  8
Titelblatt
 62
     0
370
    -3
100
AcDbBlockReference
  2
*D7
 10
0.0
 20
0.0
 30
0.0
  0
INSERT
  5
24E
100
AcDbEntity
  8
Titelblatt
 62
     0
370
    -3
100
AcDbBlockReference
  2
*D8
 10
0.0
 20
0.0
 30
0.0
  0
INSERT
  5
24F
100
AcDbEntity
  8
Titelblatt
 62
     0
370
    -3
100
AcDbBlockReference
  2
*D9
 10
0.0
 20
0.0
 30
0.0
  0
INSERT
  5
250
100
AcDbEntity
  8
Titelblatt
 62
     0
370
    -3
100
AcDbBlockReference
  2
*D10
 10
0.0
 20
0.0
 30
0.0
  0
INSERT
  5
251
100
AcDbEntity
  8
Titelblatt
 62
     0
370
    -3
100
AcDbBlockReference
  2
*D11
 10
0.0
 20
0.0
 30
0.0
  0
INSERT
  5
252
100
AcDbEntity
  8
Titelblatt
 62
     0
370
    -3
100
AcDbBlockReference
  2
*D12
 10
0.0
 20
0.0
 30
0.0
  0
INSERT
  5
253
100
AcDbEntity
  8
Titelblatt
 62
     0
370
    -3
100
AcDbBlockReference
  2
*D13
 10
0.0
 20
0.0
 30
0.0
  0
INSERT
  5
254
100
AcDbEntity
  8
Titelblatt
 62
     0
370
    -3
100
AcDbBlockReference
  2
*D14
 10
0.0
 20
0.0
 30
0.0
  0
INSERT
  5
255
100
AcDbEntity
  8
Titelblatt
 62
     0
370
    -3
100
AcDbBlockReference
  2
*D15
 10
0.0
 20
0.0
 30
0.0
  0
INSERT
  5
256
100
AcDbEntity
  8
Titelblatt
 62
     0
370
    -3
100
AcDbBlockReference
  2
*D16
 10
0.0
 20
0.0
 30
0.0
  0
INSERT
  5
257
100
AcDbEntity
  8
Titelblatt
 62
     0
370
    -3
100
AcDbBlockReference
  2
*D17
 10
0.0
 20
0.0
 30
0.0
  0
INSERT
  5
258
100
AcDbEntity
  8
Titelblatt
 62
     0
370
    -3
100
AcDbBlockReference
  2
*D18
 10
0.0
 20
0.0
 30
0.0
  0
INSERT
  5
259
100
AcDbEntity
  8
Titelblatt
 62
     0
370
    -3
100
AcDbBlockReference
  2
*D19
 10
0.0
 20
0.0
 30
0.0
  0
INSERT
  5
25A
100
AcDbEntity
  8
Titelblatt
 62
     0
370
    -3
100
AcDbBlockReference
  2
*D20
 10
0.0
 20
0.0
 30
0.0
  0
INSERT
  5
25B
100
AcDbEntity
  8
Titelblatt
 62
     0
370
    -3
100
AcDbBlockReference
  2
*D21
 10
0.0
 20
0.0
 30
0.0
  0
INSERT
  5
25C
100
AcDbEntity
  8
Titelblatt
 62
     0
370
    -3
100
AcDbBlockReference
  2
*D22
 10
0.0
 20
0.0
 30
0.0
  0
ENDSEC
  0
SECTION
  2
OBJECTS
  0
DICTIONARY
  5
1
100
AcDbDictionary
  3
ACAD_GROUP
350
2
  3
ACAD_MLINESTYLE
350
3
  0
DICTIONARY
  5
2
102
{CDWK_REACTORS
330
1
102
}
100
AcDbDictionary
  0
DICTIONARY
  5
3
102
{CDWK_REACTORS
330
1
102
}
100
AcDbDictionary
  3
STANDARD
350
4
  0
MLINESTYLE
  5
4
102
{CDWK_REACTORS
330
3
102
}
100
AcDbMlineStyle
  2
STANDARD
 70
     0
  3

 62
     0
 51
90.0
 52
90.0
 71
     2
 49
0.5
 62
   256
  6
BYLAYER
 49
-0.5
 62
   256
  6
BYLAYER
  0
ENDSEC
  0
EOF
